Project 86 - Team Black Chords & Tabs

 

Team Black Chords & Tabs

Project 86 Chords & Tabs

Version: 1 Type: Tab 0 ratings
1 star 2 stars 3 stars 4 stars 5 stars
comments

Team Black Tab

Song:      "Team Black"
Artist:    Project 86
Album:     Truthless Heroes
Tabbed by: Stephen Marz (stephenmarz@netscape.net)
Date:      20 February 2003

First time through the song jumps from VERSE to Part II CHORUS

INTRO and VERSE

e|--------------------------
B|--------------------------
G|--------------------------
D|---4----4-2-0----4---4-2-0
A|--2----0-------2----0-----
D|-2----0-------2----0------


PRE-CHORUS

e|-----------------------------------
B|-----------------------------------
G|-----------------------------------
D|-----------------------------------
A|-0-2-2-2-2-x-x-x-x-x-0-2-2-2-2--15\
D|-0-2-2-2-2-x-x-x-x-x-0-2-2-2-2--15\

[ Tab from: http://www.guitartabs.cc/tabs/p/project_86/team_black_tab.html ]
CHORUS
Part I
e|----------------------------------------------------------------|
B|----------------------------------------------------------------|
G|----------------------------------------------------------------|
D|----------------------------------------------------------------|  x2
A|-0-2-2-2-0-2-2-2-0-2-2-2-0-2-2-2---2-0-0-0-0-----5-5-5-5-5-4-2-2|
D|-0-2-2-2-0-2-2-2-0-2-2-2-0-2-2-2---2-0-0-0-0-----5-5-5-5-5-4-2-2|

Part II
e|------------------------------------------------|
B|------------------------------------------------|
G|------------------------------------------------|
D|------------------------------------------------|  x2
A|-0-2-2-2-2-----2-2-2-2-0-0-0-0----5-5-5-5-4-2-2-|
D|-0-2-2-2-2-----2-2-2-2-0-0-0-0----5-5-5-5-4-2-2-|


At the end a guitar plays this between the pauses in the second part of
the CHORUS:

e|-------------------|
B|-------------------|
G|--7-7-7-7-7-7-7-7-7|
D|-------------------|  x2
A|--5-5-5-5-5-5-5-5-5|
D|-------------------|

INTERLUDE

e|-----|
B|-----|
G|-----|
D|--9\-|
A|--7\-|
D|-----|
Comments