Project 86 - Soma Chords & Tabs

 

Soma Chords & Tabs

Project 86 Chords & Tabs

Version: 1 Type: Tab 0 ratings
1 star 2 stars 3 stars 4 stars 5 stars
comments

Soma Tab

Title :    "Soma"
Artist:    Project 86
Album :    Truthless Heroes
Tabber:    Stephen Marz (stephenmarz@netscape.net)
Date  :    22 February 2003


INTRO
Some weird effect.
Then,
e|-----------------------------------------|
B|-----------------------------------------|
G|-----------------------------------------|
D|-----------------------------------------|
A|-7/9-9-9-9\7-7--5/7-7-7--7\2-2-2---------|
D|-7/9-9-9-9\7-7--5/7-7-7--7\2-2-2---------|
[ Tab from: http://www.guitartabs.cc/tabs/p/project_86/soma_tab.html ]
VERSE
e|-----------------------------------------|
B|-----------------------------------------|
G|-----------------------------------------|
D|---4-4----2-/4------4-4------------------|
A|--0-0----2-/4------0-0-------------------|
D|-0------2-/4------0----------------------|


CHORUS
Same as INTRO

INTERLUDE
e|-14-12-10-9-10-9-10----14-12-10-9-10-5-7-|
B|-----------------------------------------|
G|-----------------------------------------|
D|-----------------------------------------|
A|-----------------------------------------|
D|-----------------------------------------|
Comments