Project 86 - Solace Chords & Tabs

 

Solace Chords & Tabs

Project 86 Chords & Tabs

Version: 1 Type: Bass Tab 0 ratings
1 star 2 stars 3 stars 4 stars 5 stars
comments

Solace Bass Tab

Artist: Project 86
Song: Solace
Album: Songs To Burn Your Bridges By
Tuning: Standard


Intro 2 (0:23)
G|---8----8/9\8-6----8------------8----8/9\8-6----8-------4---|
D|-6----6----------6---6-8-9-8--6----6----------6---6-4-6--4-| 4 times
A|------------------------------------------------------------|
E|------------------------------------------------------------|

Bridge 1 (1:01)
G|-----------|
D|-6666-6666-| 4 times
A|-----------|
E|-----------|

Chorus (1:10)
G|-------------------------|
D|--------------------4444-| 4 times
A|---6---7---6------4------|
E|-4---4---4----0-4--------|

Bridge 2 (1:29)
G|-----|
D|-----|
A|-----|
E|-4*--|

Intro 2 (1:39) 4 times

Bridge 1 (2:16)

Chorus (2:26) 4 times
[ Tab from: http://www.guitartabs.cc/tabs/p/project_86/solace_btab.html ]
Bridge 3 (2:44)
G|------------|
D|------------|
A|------------|
E|-4*-4*-4*-4*|

Rest while guitar plays Riff below 8 time, then play with guitar

Riff 1 (3:12)
G|---8---9-8-----6-|
D|-6---6-----9-8---| 16 times
A|-----------------|
E|-----------------|

Interlude 2 (3:50)
G|----------------------------------------------------------|-----|
D|-6-6--6-6-6--6-6-6--6-6-6--6-----------------------------.|-6-6-|
A|-----------------------------7-7--7-7-7--7-7-7--7-7-7--7-.|-----|
E|----------------------------------------------------------|-----|

Chorus (4:11) 8 times

Leadout (4:49)
G|-----------------------------------------------|
D|-----------------------------------------------|
A|-----------------------------------------------|   END
E|-6-6--6-6-6--6-6-6--6-6-6--6-6-6--6-6-6--6-6-6-|
Comments