Project 86 - Smc Chords & Tabs

 

Smc Chords & Tabs

Project 86 Chords & Tabs

Version: 2 Type: Tab 0 ratings
1 star 2 stars 3 stars 4 stars 5 stars
comments

Smc Tab

   
SMC (Permanent Daylight)
Tabbed by: Sintu
email: qman_44@yahoo.com

This is my first tab, so tell me what you think...

Tuning: Drop D
[ Tab from: http://www.guitartabs.cc/tabs/p/project_86/smc_tab_ver_2.html ]
Intro/Verse:                          (After Chorus)
                                           ^
e|--------------------------|-----------.----.------|
B|--------------------------|-----------.----.------|
G|--------------------------|-----------.----.------|
D|000-333-55-666-55-33------|--7-----5--.ANY\.------|
A|000-333-55-666-55-33------|--7-----7--.ANY\.------|
D|000-333-55-666-55-33------|--5-----5--.ANY\.------|
Pre-Chorus            1st Ending    2nd Ending
e|-------------------|----------|------------------|
B|-------------------|----------|------------------|
G|-------------------|----------|------------------|
D|---8------10-------|-10(+)----|--12------10------|
A|---8-(8x)-10--(8x)-|-10(+)----|--12-(3x)-10------|
D|---8------10-------|-10(+)----|--12------10------|
Chorus
e|-------------------------------------------------------------------|
B|-------------------------------------------------------------------|
G|-------------------------------------------------------------------|
D|-0---6---5---33---6---5---12-12---6---5---3---8--------------------|
A|-0---6---5---33---6---5---12-12---6---5---3---8--------------------|
D|-0---6---5---33---6---5---12-12---6---5---3---8--------------------|

The weird solo  is not here because I can't decipher what it is
with all of the effects on the guitar, but if you can figure it out,
by all means, put it in the corrections.

Bridge:
e|-------------------------------------------------------------|
B|-------------------------------------------------------------|
G|-------------------------------------------------------------|
D|-------------------------------------------------------------|
A|------5------6------5----------------------------------------|
D|--0-6----0-6----0-6------3-5-6-5-3-5-------------------------|

Play this at the end of the final chorus:
e|--------|
B|--------|
G|--------|
D|---7----|
A|---5----|
D|---0----|


| /  slide up
| \  slide down
| h  hammer-on
| p  pull-off
| ~  vibrato
| +  harmonic
| x  Mute note

DISCLAIMER: THIS MY INTERPRETAION OF THE SONG, I DID NOT WRITE THIS USING
OFFICIAL SHEET MUSIC OR TABS, THIS WAS TABBED TO THE BEST OF MY ABILITIES.
I DID NOT WRITE THIS SONG, PROJECT 86 DID. I'M JUST TRYING TO COVER ALL OF THE BASES ;)

============================================================================
Comments