Project 86 - Say Goodnight To The Bad Guy Chords & Tabs

 

Say Goodnight To The Bad Guy Chords & Tabs

Project 86 Chords & Tabs

Version: 1 Type: Tab 0 ratings
1 star 2 stars 3 stars 4 stars 5 stars
comments

Say Goodnight To The Bad Guy Tab

   
Say Goodnight To The Bad Guy
by Project 86
c2004 Tooth and Nail

C# tuning

Intro/Verse
[ Tab from: http://www.guitartabs.cc/tabs/p/project_86/say_goodnight_to_the_bad_guy_tab.html ]
D#--------------------------------------------------------------|
A#--------------------------------------------------------------|
F#--------------------------------------------------------------|
C#-----------------------------------------------------------12-|
G#-----------------------------------------------------------12-|
C#--9-9-8-8-9-9-0-0-0-0-0-0-9-9-8-8-9-9-12-12-12-12-11-11-11-12-|

Chorus

D#-----------------------------------|
A#-----------------------------------|
F#-----------------------------------|
C#--8--7--8--0--8--7--8--12--11--12--|
G#--8--7--8--0--8--7--8--12--11--12--|
C#--8--7--8--0--8--7--8--12--11--12--|

Post-chorus(unsure of this part)

D#------------------|
A#------------------|
F#--7---------------|
C#--7---8---0---3---|
G#--5---8---0---3---|
C#------8---0---3---|

I think that's it...
Comments