Project 86 - Salems Suburbs Chords & Tabs

 

Salems Suburbs Chords & Tabs

Project 86 Chords & Tabs

Version: 1 Type: Tab 0 ratings
1 star 2 stars 3 stars 4 stars 5 stars
comments

Salems Suburbs Tab

Title :    "Salem's Suburbs"
Artist:    Project 86
Album :    Truthless Heroes
Tabber:    Stephen Marz (stephenmarz@netscape.net)
Date  :    01 March 2003


INTRO
The notes for the intro are the same as the 
pre-chorus, but are not played by a guitar
(or played with some funky effect)

Bass intro

VERSE
e|------------------------------------------------
B|------------------------------------------------
G|------------------------------------------------
D|--7--5-----7--5----7--5----7--5-----------------
A|-5--------5-------5-------5---------------------
D|------------------------------------------------
[ Tab from: http://www.guitartabs.cc/tabs/p/project_86/salems_suburbs_tab.html ]
PRE-CHORUS
e|------------------------------------------------
B|------------------------------------------------
G|------10--------10-9-7--10--------10-9-7--------
D|-0-0-------0-0----------------0-0---------------
A|-x-x--8----x-x--8--7-5--8-----x-x-8--7-5--------
D|-0-0-------0-0----------------0-0---------------

CHORUS
e|----------------------------------
B|----------------------------------
G|----------------------------------
D|-7-7-7-7---7-7-7-7---7-7--5--8--10
A|-5-5-5-5---5-5-5-5---5-5--5--8--10
D|--------------------------5--8--10

e|----------------------------------
B|----------------------------------
G|----------------------------------
D|-7-7-7-7---7-7-7-7---7-7--5--8--3-
A|-5-5-5-5---5-5-5-5---5-5--5--8--3-
D|--------------------------5--8--3-

INTERLUDE
e|---------------------------
B|---------------------------
G|-7-7-7---7-7-7---7-7-------
D|-------8-------7-----5-----  x8
A|-5-5-5-8-5-5-5-7-5-5-5-----
D|-------8-------7-----5-----

e|---------------------------
B|---------------------------
G|----10-9-7-----10-9-7------
D|-7----------7--------------
A|-5--8--7-5--5--8--7-5------
D|---------------------------
Comments