Project 86 - Rebuttal Chords & Tabs

 

Rebuttal Chords & Tabs

Project 86 Chords & Tabs

Version: 1 Type: Bass Tab 0 ratings
1 star 2 stars 3 stars 4 stars 5 stars
comments

Rebuttal Bass Tab

Song: Rebuttal
Band: Project 86
Album: Project 86
Label: BEC Recordings
Tabbed by: Mangity (jickler@hotmail.com)

Tuned in ?Dropped D?.

Verse: 15x

G-----------------|
D------5---7------|
A--4-5---5---0-1--|
D-----------------|

Chorus: 4x
[ Tab from: http://www.guitartabs.cc/tabs/p/project_86/rebuttal_btab.html ]
G--------------------------------------|
D--------------------------------------|
A--------------------------------------|
D--0-3-0-5-0-3-0-111-0-3-0-5-0-3-00-7--|

Verse: 12x

Chorus: 4x

Bridge: 12x

G---------------------------|
D---------------------------|
A-------5--------5----------|
D--5-33---0-5-33---0-3-5-3--|

End: Just open D string a whole bunch of times, to the end.

Comments