Project 86 - Little Green Men Chords & Tabs

 

Little Green Men Chords & Tabs

Project 86 Chords & Tabs

Version: 1 Type: Tab 0 ratings
1 star 2 stars 3 stars 4 stars 5 stars
comments

Little Green Men Tab

Here is the first song off the new album.

Intro (2 guitar parts)
E |--------5-5-5-4-4-4-4-4-4-4-4--|---------------------------
B |--------8-8-8-7-7-7-7-7-7-7-7--|---7-7-7-7-7-8-7-7-5-------
G |--------7-7-7-6-6-6-6-6-6-6-6--|---x-x-x-x-x-x-x-x-x-------
D |-4-4-4--5-5-5-4-4-4-4-4-4-4-4--|---4-4-4-4-4-5-4-0-2-------
A |-4-4-4--5-5-5-4-4-4-4-4-4-4-4--|---------------------------
E |-2-2-2--5-5-5-4-4-4-0-4-4-5-4--|---------------------------
		Guitar1 ^		Guitar2 ^

	 little riff throughout the song 
E |----------------------------------------------------------
B |----------------------------------------------------------
G |----------------------------------------------------------
D |------4-3-3h4p3-0---4-3-3h4-4-----------------------------
A |-2-2--------------2---------------------------------------
E |----------------------------------------------------------
[ Tab from: http://www.guitartabs.cc/tabs/p/project_86/little_green_men_tab.html ]
You need to fly up to the A string quick here
E |-------------------------------------------------
B |-------------------------------------------------
G |-------------------------------------------------
D |-/5--5-5-5/7-7h9p7h9-----------------------------
A |-/5--5-5-5/7-7h9p7h9-2-2-2h5p0-2-0-2-0-2h5-0-----
E |-/5--5-5-5/7-7h9p7h9-----------------------------


	
E |---------------------------5-5-5-4-4-4-4-4-4-4-4---
B |---------------------------8-8-8-7-7-7-7-7-7-7-7---
G |-4--4/7--7-7-7--2----------7-7-7-6-6-6-6-6-6-6-6---
D |-4--4/7--7-7-7--2---4-4-4--5-5-5-4-4-4-4-4-4-4-4---
A |-2--2/5--5-5-5--0---4-4-4--5-5-5-4-4-4-4-4-4-4-4---
E |--------------------2-2-2--5-5-5-4-4-4-0-4-4-5-4---


	this is at the end
E |-------------------------------------------------
B |-------------------------------------------------
G |-4-4--4-4-(4)-7----------------------------------
D |-4-4--4-4-(4)-7----------------------------------
A |-2-2--2-2-(2)-5----------------------------------
E |-------------------------------------------------

Comments