Project 86 - Hollow Again Chords & Tabs

 

Hollow Again Chords & Tabs

Project 86 Chords & Tabs

Version: 1 Type: Bass Tab 0 ratings
1 star 2 stars 3 stars 4 stars 5 stars
comments

Hollow Again Bass Tab

   
Drop D tuning

Intro 1x
G|----|
D|----|
A|----|
D|-7*-|

Verse 4x
G|-------------------------|
D|-------------------------|
A|-------------------------|
D|-2-0-3-0-2-0-3-0-2-2-0-3-|

Pre-Chorus pt.1 2x
G|-----------------------------------------------|
D|-----------------------------------------------|
A|-----------------------------------------------|
D|-2-2-2----2-2-2-5-5-5-5-2-2-2----2-2-2-0-0-0-0-|

Verse 4x
G|-------------------------|
D|-------------------------|
A|-------------------------|
D|-2-0-3-0-2-0-3-0-2-2-0-3-|

Pre-Chorus pt.1 1x
G|-----------------------------------------------|
D|-----------------------------------------------|
A|-----------------------------------------------|
D|-2-2-2----2-2-2-5-5-5-5-2-2-2----2-2-2-0-0-0-0-|

Pre-Chorus pt.2 1x
G|-----------------------------------------------|
D|-----------------------------------------------|
A|-----------------------------------------------|
D|-2-2-2----2-2-2-5-5-5-5-2-2-2----2-2-2-x-x-x-x-|

Chorus 2x
G|----------------------------------------------|
D|----------------------------------------------|
A|----------------------------------------------|
D|-2*-----5*-----2*-----5-0-x-x-x-x-2-0-x-x-x-x-|

Verse 6x
G|-------------------------|
D|-------------------------|
A|-------------------------|
D|-2-0-3-0-2-0-3-0-2-2-0-3-|

Pre-Chorus pt.1 1x
G|-----------------------------------------------|
D|-----------------------------------------------|
A|-----------------------------------------------|
D|-2-2-2----2-2-2-5-5-5-5-2-2-2----2-2-2-0-0-0-0-|
[ Tab from: http://www.guitartabs.cc/tabs/p/project_86/hollow_again_btab.html ]
Pre-Chorus pt.2 1x
G|-----------------------------------------------|
D|-----------------------------------------------|
A|-----------------------------------------------|
D|-2-2-2----2-2-2-5-5-5-5-2-2-2----2-2-2-x-x-x-x-|

Chorus 2x
G|----------------------------------------------|
D|----------------------------------------------|
A|----------------------------------------------|
D|-2*-----5*-----2*-----5-0-x-x-x-x-2-0-x-x-x-x-|

Lead-out To Bridge 1x
G|------------------------------|
D|------------------------------|
A|------------------------------|
D|-2-2-2-0--3-3-3-0--2-0-3-0-2*-|

G|----
D|----
A|----
D|-7*-

Bridge 4x
G|-------------------------------------------------------------|
D|-------------------------------------------------------------|
A|-------------------------------------------------------------|
D|-2-2-2-7-7-7-7-7-7-7-7-7-7-7-7-2-2-2-5-5-5-5-3-3-3-3-1-0-1-0-|

Pre-Chorus pt.1 1x
G|-----------------------------------------------|
D|-----------------------------------------------|
A|-----------------------------------------------|
D|-2-2-2----2-2-2-5-5-5-5-2-2-2----2-2-2-0-0-0-0-|

Pre-Chorus pt.2 1x
G|-----------------------------------------------|
D|-----------------------------------------------|
A|-----------------------------------------------|
D|-2-2-2----2-2-2-5-5-5-5-2-2-2----2-2-2-x-x-x-x-|

Chorus 4x
G|----------------------------------------------|
D|----------------------------------------------|
A|----------------------------------------------|
D|-2*-----5*-----2*-----5-0-x-x-x-x-2-0-x-x-x-x-|

Lead-out To End 1x
G|------------------------------|
D|------------------------------|
A|------------------------------|
D|-2-2-2-0--3-3-3-0--2-0-3-0-2*-|
Comments