Project 86 - Chimes Chords & Tabs

 

Chimes Chords & Tabs

Project 86 Chords & Tabs

Version: 4 Type: Bass Tab

Chimes Bass Tab

the other tabs i saw needed a little help.
drop d's a nice tuning for this song.

my text-rythms aren't perfect so you can listen to the real thing and figure it out for yourselves.

Intro/Verse/A Lot Of The Song/Even The Outro:

G|-----------------------------------------|
D|-----------------------------------------|
A|--565---565---------565---565------------|
D|0-----0-----0-6---0-----0-----0-6--3/5---|

repeat that however many times ya need to.

Chorus:

G|--------------|
D|--------------|
A|---6----------|
D|0-----3-5-----|

again, just repeat a lot.

If ya wanna go along with the song throw another verse in and kick it straight to the 
after a few repeats.

And here it comes...
THE BRIDGE [this comes in 2 parts so pay attention]

part.1
G|-------(13)-|
D|------------|
A|------------|
D|0-35-00-----|

repeat s'more.

part.2
G|-----------------------------------|
D|-----------------------------------|
A|555-5------------------------------|
D|--------666-6---555-5---30030030---|

repeat and then add this to the end of all that yadayada:

G|-----------------------------------|
D|-----------------------------------|
A|555-5------------------------------|
D|--------666-6---555-5---30303030---|
[ Tab from: http://www.guitartabs.cc/tabs/p/project_86/chimes_btab_ver_4.html ]
so the bridge goes like this:
part.1 - repeat a while
part.2 - repeat a while
part.1 - goin' right back to it

check this out: That little note in the parenthamabobs -->(13) is something the guitar 
I think. So really, bass-boy's just playing the 0-35-00 *cut out quick* part for a couple 
You'll know what I'm talking about if you listen to the song.

But if you play by yourself please do get that jump to the 13th fret down, cause it 
really cool.

back to the song.
OH MY GOODNESS, let's play that intro/verse/thingamajig a little longer

G|-----------------------------------------|
D|-----------------------------------------|
A|--565---565---------565---565------------|
D|0-----0-----0-6---0-----0-----0-6--3/5---|

give it a few repeats then go right back into the chorus:

G|--------------|
D|--------------|
A|---6----------|
D|0-----3-5-----|

and then as an outro guess who:

G|-----------------------------------------|
D|-----------------------------------------|
A|--565---565---------565---565------------|
D|0-----0-----0-6---0-----0-----0-6--3/5---|

just remember to end it like this:

G|--------------|
D|--------------|
A|--------------|
D|0---6--3-5----|


so yeah... hope ya got it down now.
off I go. good luck with your "chiming"

OH HOW FUNNY! whatever, that was a lame pun.
I'm outta here.