Professional Murder Music - Does It Dream Chords & Tabs

 

Does It Dream Chords & Tabs

Professional Murder Music Chords & Tabs

Version: 1 Type: Tab 0 ratings
1 star 2 stars 3 stars 4 stars 5 stars
comments

Does It Dream Tab

   
BITCHIN' TABS

          URL: www.angelfire.com/goth/btab/
	EMAIL: btabmaster@hotmail.com

 ----------------------------------------------------------------------------------------------

	     SONG: Does It Dream?
	     BAND: Professional Murder Music
	    ALBUM: Professional Murder Music
   TRANSCRIBED BY: Chris Frazier (btabmaster@hotmail.com)
	     DATE: 06-15-2K1

 ----------------------------------------------------------------------------------------------

	TUNING: Drop D (D A D G B E)
[ Tab from: http://www.guitartabs.cc/tabs/p/professional_murder_music/does_it_dream_tab.html ]
     Riff 1: (w/ some kind of effect)
    E|---------------------------------------|
    B|---------------------------------------|
    G|---------------------------------------|
    D|---------------------------------------|
    A|-7-7-7-7-7-7-7-7-7-7--5-5-5--8-8-8-8-8-|
    D|---------------------------------------|

     Riff 2:
    E|---------------------------------------|
    B|---------------------------------------|
    G|---------------------------------------|
    D|-7--------10--------2--------0----3----|
    A|-7--------10--------2--------0----3----|
    D|-7--------10--------2--------0----3----|

     Riff 3:
    E|-------------------------------------|
    B|-------------------------------------|
    G|-9-----9-----9---7-----10------10----| Something like that...
    D|---9-----9-----9---7------10------10-|      ...I think
    A|-----7-----7---------5-------8-------|
    D|-------------------------------------|

Comments