Professional Murder Music - A Night Like This Chords & Tabs

 

A Night Like This Chords & Tabs

Professional Murder Music Chords & Tabs

Version: 1 Type: Tab 0 ratings
1 star 2 stars 3 stars 4 stars 5 stars
comments

A Night Like This Tab

   
Professional Murder Music - A Night Like This
Tabbed By: j
EMail: Mhfan@hotmail.com

Tuning: Standard (E A D G B E)
a Great cure coverE|-------------------------------------||
B|--------------------------/5-3-2-3-2-||
G|----2-4-2---2-4-2---2-4-2------------||intro riff
D|--4-------4-------4------------------||guitar 1 w'/ dist and flanger
A|-------------------------------------||
E|-------------------------------------||

[ Tab from: http://www.guitartabs.cc/tabs/p/professional_murder_music/a_night_like_this_tab.html ]
E|-------------------------------------||
B|-------------------------------------||
G|-----7--4--7-------------------------||guitar 2 w/ dist
D|-4---7--4--7-------------------------||rhythm not tabbed out sorry
A|-4---5--2--5-------------------------||play thru verse
E|-2-----------------------------------||

E|-------------------------------------||pre chorus
B|-------------------------------------||
G|--6--4--6--4-6--4--------------------||guitar one w/dist hits notes once
D|--x--x--x--x-x-----6-----------------||guitar 2 w/ dist and wah plays straight 
A|--4--2--4--2-4--2--x--7--------------||thru use wah but zoom pedal step is 
E|-------------------4--0--------------||what they actually use

E|-------------------------------------||
B|-------------------------------------||chorus 
G|-------------------------------------||
D|-7--9--4--4-6--7---------------------||both guitars w/ heavy dist
A|-x--x--x--x-x--x---------------------||rhythm not tabbed out have one guitar  
E|-5--7--2--2-4--5---------------------||play each note once and the other do 
a stedy rhythm
Comments