Prodigy - Their Law Chords & Tabs

 

Their Law Chords & Tabs

Prodigy Chords & Tabs

Version: 2 Type: Tab 1 rating
1 star 2 stars 3 stars 4 stars 5 stars
comments

Their Law Tab

   
fuck em and their law- prodigy (with pwei)
tabbed by jesta_187

a----------------------------------------------------
e-2-2-2-2-3-0-2-2-2-2-3-0-2-2-2-2-2-2-2-2-2-2-2-2-3-0
(pm>>>>>>>>>>>>>>>>>>>>>>>>>>>>>>>>>>>>>>>>>>>>>>>>>>

a-----------------------------------------------------
e-5-5-5-5-6-3-5-5-5-5-6-3-5-5-5-5-5-5-5-5-5-5-5-5-6-3
(pm>>>>>>>>>>>>>>>>>>>>>>>>>>>>>>>>>>>>>>>>>>>>>>>>>>
[ Tab from: http://www.guitartabs.cc/tabs/p/prodigy/their_law_tab_ver_2.html ]
a-------------------------2-2--2--2-2-2-2-2-2-2-11\ 
e-2-2-2-2-3-0-2-2-2-2-3-0-0-0--0--0-0-0-0-0-0-0-9\
(pm>>>>>>>>>>>>>>>>>>>>>>

bridge riff
(cut down at sundown)
d-----4-----4--4-----4-----------
a-2-2-2-----2--2-2-2-2----4---5-4
e-0-0------------0-0------2---3-2
 (pm>            pm>

d-----4-----4--4-----4----------
a-2-2-2-----2--2-2-2-2-2-6-7-6--
e-0-0------------0-0---0-------7
  pm>            pm>   >
Comments