Prodigy - Smack My Bitch Up Chords & Tabs

 

Smack My Bitch Up Chords & Tabs

Prodigy Chords & Tabs

Version: 1 Type: Tab 0 ratings
1 star 2 stars 3 stars 4 stars 5 stars
comments

Smack My Bitch Up Tab

INTRO

e|----------------------------------------------------|
B|----------------------------------------------------|
G|--4-------4------4------4-----4-4-4-4-4-4-44444444--|
D|--2-------2------2------2-----2-2-2-2-2-2-22222222--|
A|----------------------------------------------------|
E|----------------------------------------------------|

AFTER THE INTRO
[ Tab from: http://www.guitartabs.cc/tabs/p/prodigy/smack_my_bitch_up_tab.html ]
e|---------------------|----------------------------|
B|---------------------|----------------------------|
G|---------------------|----------------------------|
D|---------------------|----------------------------|
A|----------------4----|----1-----1-----1-----1-----|
E|-------------------2-|----0---0-0-0---0---0----2--|

CONTINUED

e|---------------------------------|-------------|
B|---------------------------------|-------------|
G|---------------------------------|-------------|
D|---------------------------------|-------------|
A|---1-----1-----1-----4---------1-|------1------|
E|---0---0-0-0---0--2------0-0-0-0-|----0-0-0-2--|
Comments