Prodigy - Shootdown Chords & Tabs

 

Shootdown Chords & Tabs

Prodigy Chords & Tabs

Version: 2 Type: Tab 0 ratings
1 star 2 stars 3 stars 4 stars 5 stars
comments

Shootdown Tab

THIS IS THE INTRO

E|-----------------------|-----------------------|-------------------------|
B|-----------------------|-----------------------|-------------------------|
G|-----------------------|-----------------------|-------------------------|
D|-----------------------|-----------------------|-------------------------|
A|-----------------------|-----------------------|-------------------------|
E|------1-3-3--3--3------|------1-3-3--3--3------|------1-3-3--3--3--1-3-3-|

E|---------------------------|--------|
B|---------------------------|--------|
G|---------------------------|--------|
D|---------------------------|--------|     X2
A|---------------------1-----|--1--3--|
E|--3--3--1-3-3--3--3-----3--|--------|

MAIN GUITAR
[ Tab from: http://www.guitartabs.cc/tabs/p/prodigy/shootdown_tab_ver_2.html ]
e|-----------------------|-----------------------|--------------------|
B|-------4-4--4--4--4----|-------4-4--4--4--4----|--------------------|
G|-------3-3--3--3--3----|-------3-3--3--3--3----|-------6-6--6--6--6-|
D|-----------------------|-----------------------|-------6-6--6--6--6-|
A|-------6-6--6--6--6----|-------6-6--6--6--6----|-------4-4--4--4--4-|
E|-----------------------|-----------------------|--------------------|

e|---------------------|
B|---------------------|
G|-------5-5--5--5--5--|
D|-------5-5--5--5--5--|
A|-------3-3--3--3--3--|
E|---------------------|

" SHOOT EM DOWN, SHOOT EM DOWN, SHOOT EM DOWN
TO THE BANG, BANG, BANG''

e|----------0--0-----------------0--0-----|
B|----------------4--------------------4--|
G|----------------------------------------|
D|----------------------------------------|
A|----------------------------------------|
E|----------------------------------------|

e|----------------------|
B|--4--2--4----2--------|
G|------------------3---|
D|----------------------|
A|----------------------|
E|----------------------|
Comments