Prodigy - Rat Poison Chords & Tabs

 

Rat Poison Chords & Tabs

Prodigy Chords & Tabs

Version: 1 Type: Bass Tab 0 ratings
1 star 2 stars 3 stars 4 stars 5 stars
comments

Rat Poison Bass Tab

Artist: The Prodigy
Song: Rat Poison
Album: Poison (CD Single)

Tabbed By: Bogbrush
Email: Taff733@aol.com

Bass#1

G-|-----------------|
D-|-----------------|
A-|-8---------------|
E-|-----------------|

This is where the beats kick in, and you play this part.

G-|-------------------------------------------------------------------|
D-|-------------------------------------------------------------------|
A-|----------------------------------8--------------------------------|
E-|---1---1-----1-1-1---1---3-----4-----1---1-----1-1-1---1---3-----4-|
[ Tab from: http://www.guitartabs.cc/tabs/p/prodigy/rat_poison_btab.html ]
G-|-------------------------------------------------------------------|
D-|-------------------------------------------------------------------|
A-|-----------------------------------8-------------------------------|
E-|-1-1---1-----1-1-1---1---3-----4-----1---1-----1-1-1---1---3-----4-|


While that is playing a new part comes on, and carry on playing that (having 2 bass players 
could be useful, if you wanted)

G-|--------------|
D-|--------------|
A-|--------------|  and carry
E-|-4-1---1------|       0n

Enjoy, ERRORS OR MISTAKES JUST GIVE ME AN EMAIL!
Comments