Prodigy - No Good Chords & Tabs

 

No Good Chords & Tabs

Prodigy Chords & Tabs

Version: 1 Type: Tab 0 ratings
1 star 2 stars 3 stars 4 stars 5 stars
comments

No Good Tab

   
Prodigy - No Good

Part 1 (Sounds like a bass guitar)

e|--------------------------------|
B|--------------------------------|
G|--------------------------------|
D|--------------------------------|
A|--0-2-3-3-3-3-0-2-3-3-3-3-------|
E|--------------------------0-0-0-|

Synthesiser Part
[ Tab from: http://www.guitartabs.cc/tabs/p/prodigy/no_good_tab.html ]
e|-12-12-12-11-11-11-12-12-12-11-11-11-12-12-12-14-14-12-12-12-12-11-11-11-12-12-|
B|-0--0--0--0--0--0--0--0--0--0--0--0--0--0--0--0--0--0--0--0--0--0--0--0--0--0--|
G|-------------------------------------------------------------------------------|
D|-------------------------------------------------------------------------------|
A|-------------------------------------------------------------------------------|
E|-------------------------------------------------------------------------------|

Bass Part 2

e|-------------------------------|
B|-------------------------------|
G|-------------------------------|
D|-------------------------------|
A|-3-3-3-3-3-3-3-4-4-4-4-4-4-4-4-|
E|-------------------------------|
Comments