Prodigy - Jericho Chords & Tabs

 

Jericho Chords & Tabs

Prodigy Chords & Tabs

Version: 2 Type: Tab 0 ratings
1 star 2 stars 3 stars 4 stars 5 stars
comments

Jericho Tab

JERICHO

e|---------------------------------------------------------------------|
B|---------------------------------------------------------------------|
G|---------------------------------------------------------------------|
D|---------------------------------------------------------------------|
A|---------------------------------------------------------------------|
E|-500060005000600050006000500060005006--------------------------------|

AND KEEP PLAYING UNTIL THE BEATS START ABOUT 14 SECS IN.


THIS ABOUT 2:40 IN, THE PART WHICH SOUNDS LIKE EVERYTHINGS
SMASHING
[ Tab from: http://www.guitartabs.cc/tabs/p/prodigy/jericho_tab_ver_2.html ]
e|--12------12------12----|----12-16---12--------------|
B|--14------14------14----|----14------14-13--13----13-|
G|--13------13------13----|----13------13-13--13----13-|
D|------------------------|----------------------------|
A|------------------------|----------------------------|
E|------------------------|----------------------------|

CONTINUED

e|--12------12------12----|----12-16---12----|
B|--14------14------14----|----14------14-13-|
G|--13------13------13----|----13------13-13-|
D|------------------------|------------------|
A|------------------------|------------------|
E|------------------------|------------------|
Comments