Prodigy - Greatest Hits Chords & Tabs

 

Greatest Hits Chords & Tabs

Prodigy Chords & Tabs

Version: 1 Type: Tab 0 ratings
1 star 2 stars 3 stars 4 stars 5 stars
comments

Greatest Hits Tab

   
1- CHARLY
2- FIRE
3- OUT OF SPACE
4- WIND IT UP
5- EVERYBODY IN THE PLACE
6- ONE LOVE
7- VOODOO PEOPLE
8- POISON
9- NO GOOD START THE DANCE
10- THEIR LAW
11- SMACK MY BITCH UP
12- FIRESTARTER
13- BREATHE
14- MINDFIELDS
15- BABYS GOT A TEMPER
16- GIRLS
17- HOTRIDE
18- SPITFIRE

-----------------------------------------------------------------------------
CHARLY

HIS SHORT PIANO IS PLAYED WITH THE MAIN SYNTH

e|--21-28-----28---------21-28-----28---|
B|--------------------------------------|
G|--------------------------------------|
D|--------------------------------------|
A|--------------------------------------|
E|--------------------------------------|

WEIRD SYNTH

e|--4-----------4--------4------------------0----5-------5---2-|
B|-----4------------4--------4-----------0---------------------|
G|---------------------1--------1------------------------------|
D|--6------6--------------------------4------------------------|
A|-------------------------------------------------------------|
E|-------------------------------------------------------------|

-----------------------------------------------------------------------------

FIRE
HIS IS THE MAIN  PART OF THE SONG WITH THE WACKY VOCALS

E||--1--1--1--1--1--1--1--1--|-------------1----------|
B||--------------------------|--4----4--4-------3--3--|
G||--------------------------|------------------------|
D||--------------------------|------------------------|
A||--------------------------|------------------------|
E||--------------------------|------------------------|

CONTINUED

--------------------------|--------------------------|
--3----3----3-3----3----3-|--3----3----3-3----3----3-|
----------3-----------3---|----------3-----------3---|
--------------------------|--------------------------|
--------------------------|--------------------------|
--------------------------|--------------------------|

-----------------------------------------------------------------------------

3- OUT OF SPACE

AIN SYNTH USED IN THE SONG

e|-12--11--12--11--12--11--12--15--16--15--16--15--16--15-----------|
B|---------------------------------------------------------17--17---|
G|------------------------------------------------------------------|
D|------------------------------------------------------------------|
A|------------------------------------------------------------------|
E|------------------------------------------------------------------|

THE CHORDS PLAYED WHEN THE MAIN SYNTH IS USED

e|-9-----------1--------11--------------9-------11--------9-------1---------11-|
B|-9-----------2--------11--------------9-------11--------9-------2---------11-|
G|-9--------------------12--------------9-------12--------9-----------------12-|
D|-----------------------------------------------------------------------------|
A|-----------------------------------------------------------------------------|
E|-----------------------------------------------------------------------------|

AND REPEAT FROM

e|--1--------------------|
B|--2--------------------|
G|-----------------------|
D|-----------------------|
A|-----------------------|
E|-----------------------|


" IM FOR SENDING TO OUT OF SPACE,
TO FIND ANTOHER RACE''.

e|---3---5-5---5-5-5--12--------1210---8-10-12------|
B|-5--------------------------------------------10--|
G|--------------------------------------------------|
D|--------------------------------------------------|
A|--------------------------------------------------|
E|--------------------------------------------------|

e|---------------------12--------1210---8-10-12------|
B|---8---1010---101010---------------------------10--|
G|-9-------------------------------------------------|
D|---------------------------------------------------|
A|---------------------------------------------------|
E|---------------------------------------------------|

-----------------------------------------------------------------------------

WIND IT UP

INTRO

e|-11----11-----------------------------------------------|
B|-14----13---12----12---14-----14---------------12-------|
G|-13-13-13---15----13---16-----15--15---15--16--13-------|
D|-13-13-13---14-14-14---16--16-16--16---14------14-------|
A|------------14-14-14---16--16-16--16---14------14-------|
E|--------------------------------------------------------|


RHYTHM PART

e|-11-11----11--0--0----7-----9--9------9-----------------|
B|-14-14----13--11-11---9-----12-12-----11--9--9------9---|
G|-13-13----13--11-11---9-----11-11-----11--11-11-----10--|
D|-13-13-13-----9--9----------11-11--11-----11-11-----11--|
A|------------------------------------------11-11--11-----|
E|--------------------------------------------------------|

e|-11-11----11--0--0----7-----9--9------9-----------------|
B|-14-14----13--11-11---9-----12-12-----11--9--9------9---|
G|-13-13----13--11-11---9-----11-11-----11--11-11-----10--|
D|-13-13-13-----9--9----------11-11--11-----11-11-----11--|
A|------------------------------------------11-11--11-----|
E|--------------------------------------------------------|

AND KEEP REPEATING UNTIL NECCESARY

-----------------------------------------------------------------------------

EVERYBODY IN THE PLACE

THIS SOUNDS LIKE A BASS XYLOPHONE,
NOT LONG AFTER THE INTRO

e|-------17-20---19------------17---16------|
B|--17--------------17------17----------17--|
G|------------------------------------------|
D|----------------------19------------------|
A|------------------------------------------|
E|------------------------------------------|

-----------------------------------------------------------------------------

ONE LOVE

THE WEIRD "WHY-YAHH'' VOCAL IS WITH THIS

e|-18--16--16---16---16-----16----16-----18--16--16--|
B|-19--19--19---19---19-----19----19-----19--19--19--|
G|-18--18--18---18---18-----18----18-----18--18--18--|
D|---------------------------------------------------|
A|---------------------------------------------------|
E|---------------------------------------------------|

e|--16--16-----16---16----|
B|--19--17-----17---17----|
G|--18--18-----18---18----|
D|------------------------|
A|------------------------|
E|------------------------|

-----------------------------------------------------------------------------

VOODOO PEOPLE

This is the intro and the verse.

e:--------------------------------------------------------|
B:--------------------------------------------------------|
G:--------------------------------------------------------|
D:-4-6-6--4-6-6-4-6-6--4-6-6--4-6-6--4-6-6-4-6-6--4-6-6-7-|
A:-4-6-6--4-6-6-4-6-6--4-6-6--4-6-6--4-6-6-4-6-6--4-6-6-7-|
D:-4-6-6--4-6-6-4-6-6--4-6-6--4-6-6--4-6-6-4-6-6--4-6-6-7-|

Part with no drums: (originally not by guitar)

e:--------------------------------------|
B:------7----------8--8-8^6-------------|
G:--6^8-----6--6-6----------9-6---------|
D:--------------------------------------|
A:--------------------------------------|
D:--------------------------------------|
(Continues into Drums)

Quiet riff:
e:--------------------------------------|
B:--9-9--9-9--9-9----9-9--9-9-10-10-----|
G:--------------------------------------|
D:--------------------------------------|
A:--------------------------------------|
D:--------------------------------------|

Not by guitar by you can play it:
e:---------------------|------------------------|
B:----7----------------|----7-------------------|
G:-----8-8----9-8-9-8--|-----8-8-8-----8---8----|
D:--6------6-----------|--6---------6----7---7--|
A:---------------------|------------------------|
D:---------------------|------------------------|

-----------------------------------------------------------------------------

POISON

HE BASSLINE AFTER ALL THE TALKING

e|-----5------------5--------5----------5--5----|
B|----------------------------------------------|
G|-3--------3---3--------3-------3---3----------|
D|----------------------------------------------|
A|----------------------------------------------|
E|----------------------------------------------|

" I GOT THE POISON''

e|-----------------------------------|
B|-----------------------------------|
G|-----------------------------------|
D|-----------------------------------|
A|--8---------8-------8----8-----8---|
E|--6---------6-------6----6-----6---|


-----------------------------------------------------------------------------

NO GOOD START THE DANCE

he bass sort-of-thing at the beginning-
[ Tab from: http://www.guitartabs.cc/tabs/p/prodigy/greatest_hits_tab.html ]
e|--------------------------------|
B|--------------------------------|
G|--------------------------------|
D|--------------------------------|
A|--0-2-3-3-3-3-0-2-3-3-3-3-------|
E|--------------------------0-0-0-|

Now heres that wicked synthesizer thing-

e|-12-12-12-11-11-11-12-12-12-11-11-11-12-12-12-14-14-12-12-12-12-|
b|-0--0--0--0--0--0--0--0--0--0--0--0--0--0--0--0--0--0--0--0--0--|
G|----------------------------------------------------------------|
D|----------------------------------------------------------------|
A|----------------------------------------------------------------|
E|----------------------------------------------------------------|

e|-11-11-11-12-12--|
b|-0--0--0--0--0---|
G|-----------------|
D|-----------------|
A|-----------------|
E|-----------------|

-----------------------------------------------------------------------------

THEIR LAW

Play: (fast)
   A      Bb G
e:------------------------------------------------|
B:------------------------------------------------|
G:------------------------------------------------|x lots
D:-7-7-7-7-8-5--7-7-7-7-8-5--7-7-7-7-7-7-7-7-8-5--|
A:-7-7-7-7-8-5--7-7-7-7-8-5--7-7-7-7-7-7-7-7-8-5--|
D:-7-7-7-7-8-5--7-7-7-7-8-5--7-7-7-7-7-7-7-7-8-5--|

then:

     C           C# B
e:--------------------------------------------------------------------|
B:--------------------------------------------------------------------|
G:--------------------------------------------------------------------|
D:---10-10-10-10-11-8--10-10-10-10-11-8--10-10-10-10-10-10-10-10-11-8-|x lots
A:---10-10-10-10-11-8--10-10-10-10-11-8--10-10-10-10-10-10-10-10-11-8-|  too
D:---10-10-10-10-11-8--10-10-10-10-11-8--10-10-10-10-10-10-10-10-11-8-|

then go back to the first riff and play it again

Then:
Break:
------

"FUCK'EM, AND THEIR LAW"

    D     D                        G  F# G  F#
e:---------------------------------------------|
B:---------------------------------------------|
G:---------------------------------------------|
D:--0--0--12---0--12-----0--0--12--------------|
A:--0--0--12---0--12-----0--0--12--3--2--3--2--|
D:--0--0--12---0--12-----0--0--12--3--2--3--2--|


e:------------------------------------------|
B:------------------------------------------|
G:------------------------------------------|
D:--0--0--12--0--12----0--0--12----16-17-13-|
A:--0--0--12--0--12----0--0--12-------------|
D:--0--0--12--0--12----0--0--12-------------|

Play lots

Further down the song play this (over previous bit):
e:---------------------------|--------------------------------|
B:---------------------------|----------------15-15-15-13-15--|
G:------15-14-12--15-14-12---|-------15-14-12-----------------|
D:--0------------------------|---0----------------------------|
A:--0------------------------|---0----------------------------|
D:--0------------------------|---0----------------------------|

-----------------------------------------------------------------------------

SMACK MY BITCH UP

INTRO

e|----------------------------------------------------|
B|----------------------------------------------------|
G|--4-------4------4------4-----4-4-4-4-4-4-44444444--|
D|--2-------2------2------2-----2-2-2-2-2-2-22222222--|
A|----------------------------------------------------|
E|----------------------------------------------------|

AFTER THE INTRO

e|---------------------|----------------------------|
B|---------------------|----------------------------|
G|---------------------|----------------------------|
D|---------------------|----------------------------|
A|----------------4----|----1-----1-----1-----1-----|
E|-------------------2-|----0---0-0-0---0---0----2--|

CONTINUED

e|---------------------------------|-------------|
B|---------------------------------|-------------|
G|---------------------------------|-------------|
D|---------------------------------|-------------|
A|---1-----1-----1-----4---------1-|------1------|
E|---0---0-0-0---0--2------0-0-0-0-|----0-0-0-2--|


-----------------------------------------------------------------------------

FIRESTARTER

MAIN RIFF

E|------------------------------------------------------------------|
B|---11-----11------11-----/---9-------/-11-----/-13----------------|
G|---13^----13^----13^----/---11^----/-13^----/-15^-----------------|
D|------------------------------------------------------------------|
A|-------(double bends)---------------------------------------------|
E|------------------------------------------------------------------|

-----------------------------------------------------------------------------

BREATHE

Intro (clean):

E ----------------------------------|
B ----------------------------------|
G ----------------------------------|
D 1-1-1-1-4-1-4-3-1-3-0-0-0-0-0-0-0-|
A ----------------------------------|
E ----------------------------------|

Distortion chords when he sings "Come play my game"

E---------------------|
B---------------------|
G---------------------|
D-8---7--6--5---------|
A-8---7--6--5---------|
E-6---5--4--3---------|


-----------------------------------------------------------------------------

MINDFIELDS

Here is that sort of twangy thing at the beginning of the song.

e:---8-6---------------8-6-------------|
B:-6-----6-9-8-------6-----6-9-8-----6-|
G:-------------8-5---------------8-5---|
D:-------------------------------------|
A:-------------------------------------|
D:-------------------------------------|

-----------------------------------------------------------------------------

GIRLS

MAIN SYNTH

e|-20--18--16--18-16-18----16---20--18-16--18------16-|
B|----------------------16----------------------16----|
G|----------------------------------------------------|
D|----------------------------------------------------|
A|----------------------------------------------------|
E|----------------------------------------------------|

-----------------------------------------------------------------------------

HOTRIDE

HOTRIDE

"YOU HEAR ME''

e|-------7---0-----------------|
B|---5-------------------------|
G|-----------------------------|
D|-----------------------------|
A|-----------------------------|
E|-----------------------------|

MAIN PART THATS USED IN THE SONG

e|------------------------------------0------|
B|---------------------0--------3------------|
G|--------0---2----2-------------------------|
D|-------------------------------------------|
A|-------------------------------------------|
E|-0-----------------------------------------|

" HOTRIDE IN MY AIR BALLOON''

e|--------------------|
B|--------------------|
G|--------------------| AND REPEAT THROUGH THE CHORUS
D|-2--22--22----------|
A|-2--22--22----------|
E|-0--00--00----------|

"PUSH IT''

e|------------------------------------0------|
B|---------------------0--------3------------|
G|--------0---2----2-------------------------|
D|-------------------------------------------|
A|-------------------------------------------|
E|-0-----------------------------------------|

-----------------------------------------------------------------------------

SPITFIRE

Intro:
*keyboard*
E|-8-9-10-------8-9-10----|
B|------------------------|
G|--------11-11-----------|
D|------------------------|
A|------------------------|
D|------------------------|

*guitar*
E|---------------|
B|---------------|
G|---------------|
D|-2-2-2---etc.--|
A|-2-2-2---etc.--|
D|-0-0-0---etc.--|

*kind of voice*
E|-10----8---------------|
B|----10---8-11-10-------|
G|-----------------11----|
D|--------------------12-|
A|-----------------------|
D|-----------------------|

*weird sound*
e|-10/11-|
B|-------|
G|-------|
D|-------|
A|-------|
D|-------|

===================================================================
Verse:
Guitar plays only
E|---------|
B|---------|
G|---------|
D|-0-0-0---|
A|-0-0-0---|
D|-0-0-0---|

Weird sound
E|-10--11--13--14---14-13-11-14-13-11-(10------)-----------|
B|------------------------------------(---10---)-----------|
G|------------------------------------(------11)-----------|
D|---------------------------------------------------------|
A|---------------------------------------------------------|
D|---------------------------------------------------------|

-----------------------------------------------------------------------------

THATS ALL
Comments