Prodigy - Funky Shit Chords & Tabs

 

Funky Shit Chords & Tabs

Prodigy Chords & Tabs

Version: 1 Type: Bass Tab 0 ratings
1 star 2 stars 3 stars 4 stars 5 stars
comments

Funky Shit Bass Tab

   
Artist: The Prodigy
Song: Funky Shit
Album: Fat Of The land (1997)

Tabbed By: Bogbrush
Email: Taff733@aol.com

After the sample this is the main synth sound, it might look hard, but just practice.

G-|-----------------------------------------------------------------|
D-|-----------------------------------------------------------------|
A-|---------------------6---5---------------------------------------|
E-|-7-7-7-7-5-7-7-7-7-7---7---7-7-7-8-7-7-7-7-7-8-7-8-7-7-7-5-7-7-7-|

This is the where the disco sound pumps in
[ Tab from: http://www.guitartabs.cc/tabs/p/prodigy/funky_shit_btab.html ]
G-|-----------------------2-----2-4----|
D-|-----------------0-2-4-----4--------|
A-|---0---0---2---2--------------------|
E-|-2----------------------------------|

This is the quiet bit not far from the end.


G-|-6-6-6-6-8-8-8-8-8-8-8-8-8-8-8-8-6-8-8-8-6-8-8-8-8-8-8-8-8-8-8-8-8-|
D-|-------------------------------------------------------------------|
A-|-------------------------------------------------------------------|
E-|-------------------------------------------------------------------|

G-|-6-8-8-8-6-8-8-8-8-8-8-8-8-8-8-8-6-8-8-8-6-8-8-8-8-8-8-8-8-8-8-8-8--|
D-|--------------------------------------------------------------------|
A-|--------------------------------------------------------------------|
E-|--------------------------------------------------------------------|

There you go! Errors mistakes email me, enjoy!
Comments