Prodigy - Fat Of The Land Chords & Tabs

 

Fat Of The Land Chords & Tabs

Prodigy Chords & Tabs

Version: 1 Type: Tab 0 ratings
1 star 2 stars 3 stars 4 stars 5 stars
comments

Fat Of The Land Tab

   
1- SMACK MY BITCH UP (DONT KNOW

2- BREATHE

Intro (clean):

E ----------------------------------|
B ----------------------------------|
G ----------------------------------|
D 1-1-1-1-4-1-4-3-1-3-0-0-0-0-0-0-0-|
A ----------------------------------|
E ----------------------------------|

Distortion chords when he sings "Come play my game"

E ---------------|
B ---------------|
G 3---2----------|
D 1---0---6----2-|
A --------4----0-|
E ---------------|

3- DIESEL POWER (DONT KNOW)

4- FUNKY SHIT

After the sample this is the main synth sound, it might look hard, but just practice.

G-|-----------------------------------------------------------------|
D-|-----------------------------------------------------------------|
A-|---------------------6---5---------------------------------------|
E-|-7-7-7-7-5-7-7-7-7-7---7---7-7-7-8-7-7-7-7-7-8-7-8-7-7-7-5-7-7-7-|

This is the where the disco sound pumps in

G-|-----------------------2-----2-4----|
D-|-----------------0-2-4-----4--------|
A-|---0---0---2---2--------------------|
E-|-2----------------------------------|

This is the quiet bit not far from the end.


G-|-6-6-6-6-8-8-8-8-8-8-8-8-8-8-8-8-6-8-8-8-6-8-8-8-8-8-8-8-8-8-8-8-8-|
D-|-------------------------------------------------------------------|
A-|-------------------------------------------------------------------|
E-|-------------------------------------------------------------------|

G-|-6-8-8-8-6-8-8-8-8-8-8-8-8-8-8-8-6-8-8-8-6-8-8-8-8-8-8-8-8-8-8-8-8--|
D-|--------------------------------------------------------------------|
A-|--------------------------------------------------------------------|
E-|--------------------------------------------------------------------|

(THIS IS GUITAR I MISSED THE LAST 2 STRINGS AS THEY'RE NOT USED)

5- SERIAL THRILLA

Verse

e|------------------------|
B|------------------------|
G|-2-0--2-0-22-0--2-0-----|
D|-4-0--4-0-44-0--4-0-----|
A|-4-0--4-0-44-0--4-0-----|
E|-2-0--2-0-22-0--2-0-----|

Chorus

|--------------------------------------|
B|-------------------------------------|
G|-------------------------------------|
D|-------------------------------------|
A|-------------------------------------|
E|2-0-2-0-2-2-0-2-0-2-0-2-0-2-2-0-2-2--|

6- MINDFIELDS

Here is that sort of twangy thing at the beginning of the song.

e:---8-6---------------8-6-------------|
B:-6-----6-9-8-------6-----6-9-8-----6-|
G:-------------8-5---------------8-5---|
D:-------------------------------------|
A:-------------------------------------|
D:-------------------------------------|

7- NARAYAN (DONT KNOW)

8- FIRESTARTER

MAIN RIFF

E|------------------------------------------------------------------|
B|---11-----11------11-----/---9-------/-11-----/-13----------------|
G|---13^----13^----13^----/---11^----/-13^----/-15^-----------------|
D|------------------------------------------------------------------|
A|-------(double bends)---------------------------------------------|
E|------------------------------------------------------------------|


9- CLIMBATIZE

Here is the intro.

E-|---------------------------------------------------------------|
B-|---------------------------------------------------------------|
G-|---------------------------------------------------------------|
D-|-4---4---4---4---4---4---4---4---4---4---4---4---4---4---4---4-|
A-|---------------------------------------------------------------|  Etc.
E-|---------------------------------------------------------------|

Sitar liken instrument
E-|-----------------------------3-------2-------------------------|
B-|---------------------------------------------------------2-----|
G-|---------------------------------------------------------------|
D-|-4-------------------------------------------------------------|
A-|---------------------------------------------------------------|
E-|---------------------------------------------------------------|

10- FUEL MY FIRE

This is the bit after the drums have kicked in, A.K.A the Intro

Intro/Chorus

E|--------------------------|
B|--------------------------|
G|--------------------------|
D|--3-3-3/99-9-9/66-6-6-66--|
A|--3-3-3/99-9-9/66-6-6-66--|
E|--1-1-1/77-7-7/44-4-4-44--|

Verse
[ Tab from: http://www.guitartabs.cc/tabs/p/prodigy/fat_of_the_land_tab.html ]
E|--------------------------------------------|
B|--------------------------------------------|
G|--------------------------------------------|
D|--9/6-6-6-6-6-6--9/6-6-6-6-6-6/3-3-3-3-3-3--|
A|--9/6-6-6-6-6-6--9/6-6-6-6-6-6/3-3-3-3-3-3--|
E|--7/4-4-4-4-4-4--7/4-4-4-4-4-4/1-1-1-1-1-1--|


HERE ARE SOME B'SIDES

1- ONE MAN ARMY (SMACK MY BITCH UP)

Intro

E|-----------|
B|-----------|
G|-----------|
D|-----------|
A|-----------|
E|--2--5--3--|

E|-----------------------------------------------------------|
B|-----------------------------------------------------------|
G|-----------------------------------------------------------|
D|-----------------------------------------------------------|
A|-----------------------------------------------2--4--------|
E|--3h2-0-0-00--3h2-0-0-00--3h2-0-0-00--3h2-0-3--------0--2--|

E|-----------------------------------------------------------------|
B|-----------------------------------------------------------------|
G|--------------------------------------------------------2--------|
D|-----------------------------------------4--2--4--2--4-----4--3--|
A|-----------------------------------------------------------------|
E|--3h2-0-0-00--3h2-0-0-00--3h2-0-0-00--3--------------------------|

E|--------------------------------|
B|--------------------------------|
G|-----------------------2--------|
D|--------4--2--4--2--4-----4--3--|
A|--3--3--------------------------|
E|--------------------------------|

E|-----------------------|
B|-----------------------|
G|-----------------------|
D|-----------3-----------|
A|--3--3--5------5--3/1--|
E|-----------------------|

E|----------|
B|----------|
G|--6----6--|
D|----------|
A|----------|
E|----------|

Verse
E|--------|------|
B|--------|--^7--|
G|--------|------|
D|--4--4--|------|
A|--2--2--|------|
E|--------|------|


Pre Chorus
E|--------------------------|
B|--------------------------|
G|-----------------2--------|
D|--4--2--4--2--4-----4--3--|
A|--------------------------|
E|--------------------------|

E|--------|
B|--------|
G|--------|
D|--4--4--|
A|--2--2--|
E|--------|

E|-----------------|
B|-----------------|
G|-----------------|
D|------4-4-4------|
A|--3-----------3--|
E|-----------------|

1st Chorus
E|-----------|
B|-----------|
G|-----------|
D|-----------|
A|-----------|
E|--2--5--3--|

E|-----------------------------------------------------------|
B|-----------------------------------------------------------|
G|-----------------------------------------------------------|
D|-----------------------------------------------------------|
A|-----------------------------------------------2--4--------|
E|--3h2-0-0-00--3h2-0-0-00--3h2-0-0-00--3h2-0-3--------0--2--|

E|-----------------------------------------------------------------|
B|-----------------------------------------------------------------|
G|--------------------------------------------------------2--------|
D|-----------------------------------------4--2--4--2--4-----4--3--|
A|-----------------------------------------------------------------|
E|--3h2-0-0-00--3h2-0-0-00--3h2-0-0-00--3--------------------------|

E|----------|
B|----------|
G|--6----6--|
D|----------|
A|----------|
E|----------|

2nd Chorus
E|--------|
B|--------|
G|--------|
D|--4--4--|
A|--2--2--|
E|--------|

E|----------------------------------------|
B|----------------------------------------|
G|--15/13/15/13/15--13-16-13-13-16-13-13--|
D|----------------------------------------|
A|----------------------------------------|
E|----------------------------------------|

Outro
E|-----------------------|
B|-----------------------|
G|-----------------------|
D|-----------3-----------|
A|--3--3--5------5--3/1--|
E|-----------------------|

E|-------------------------------|
B|-------------------------------|
G|----------------------2--------|
D|-------4--2--4--2--4-----4--3--|
A|-3--3--------------------------|
E|-------------------------------|

2- MOLOTOV BITCH (FIRESTARTER)

Intro:

e|--10----------14-----------88------13------11----------|
B|-------------------------------------------------------|
G|-------------------------------------------------------|
D|-------------------------------------------------------|
A|-------------------------------------------------------|

SOME OF THESE TABS ARE MINE AND I ROUNDED THEM UP, BUT A FEW MIGHT BE FROM OTHER
SOURCES, BUT MOST ARE MINE. I AM BOGBRUSH, A MATE TRIED REGISTERING ON MY PC, AND
NOW IT THINKS IM HIM!

ENJOY
E|-------------------------------------------------------|
Comments