Prodigy - Experience Chords & Tabs

 

Experience Chords & Tabs

Prodigy Chords & Tabs

Version: 1 Type: Tab 0 ratings
1 star 2 stars 3 stars 4 stars 5 stars
comments

Experience Tab

   
1- JERICHO
2- MUSIC REACH
3- WIND IT UP
4- YOUR LOVE
5- HYPERSPEED
6- CHARLY (TRIP INTO DRUM N BASS MIX)
7- OUT OF SPACE
8- EVERYBODY IN THE PLACE (118 AND RISING)
9- WEATHER EXPERIENCE
10- FIRE (SUNRISE VERSION)
11- RUFF IN THE JUNGLE BIZNESS
12- DEATH OF THE PRODIGY DANCER (LIVE)

BONUS TABS

13- FIRE (ORIGINAL)
14- CHARLY (ORIGINAL)
15- CHARLY (ALLEY CAT MIX)
16- G-FORCE (B'SIDE TO E.I.T.P)

-----------------------------------------------------------------------------

JERICHO

e|---------------------------------------------------------------------|
B|---------------------------------------------------------------------|
G|---------------------------------------------------------------------|
D|---------------------------------------------------------------------|
A|---------------------------------------------------------------------|
E|-500060005000600050006000500060005006--------------------------------|

AND KEEP PLAYING UNTIL THE BEATS START ABOUT 14 SECS IN.

-----------------------------------------------------------------------------

MUSIC REACH

Intro

e|-------------4------------|
B|-333----333---------------|
G|--------------------------|
D|--------------------------|
A|--------------------------|
E|--------------------------|

CRAZY SYNTH

e|--4----3---2--9--9------------|-----------------9---9--------------|
B|--------------------9----9-8--|--9-----8---------------9----9-8----|
G|------------------------------|-------------11---------------------|
D|--6------6----6---------------|------------------------------------|
A|--4------4-------11---11------|--11------11-----11--11---11--------|
E|--------------9--9----9-------|--9-------9------9---9----9---------|

PLAY BOTH OF THESE TWICE

This is about halfway through the song

e|-------------------------------------------------|
B|-------------------------------------------------|
G|-------------------------------------------------|
D|--10----10----10----10----5-----7-----10-----10--|   And repeat for about
A|--10----10----10----10----5-----7-----10-----10--|      a min or two.
E|--8-----8-----8-----8-----3-----5-----8------8---|

      " Make me wanna shout!"

THIS ABOUT 2:40 IN, THE PART WHICH SOUNDS LIKE EVERYTHINGS
SMASHING

e|--12------12------12----|----12-16---12--------------|
B|--14------14------14----|----14------14-13--13----13-|
G|--13------13------13----|----13------13-13--13----13-|
D|------------------------|----------------------------|
A|------------------------|----------------------------|
E|------------------------|----------------------------|

CONTINUED

e|--12------12------12----|----12-16---12----|
B|--14------14------14----|----14------14-13-|
G|--13------13------13----|----13------13-13-|
D|------------------------|------------------|
A|------------------------|------------------|
E|------------------------|------------------|

-----------------------------------------------------------------------------

WIND IT UP

INTRO

e|-11----11-----------------------------------------------|
B|-14----13---12----12---14-----14---------------12-------|
G|-13-13-13---15----13---16-----15--15---15--16--13-------|
D|-13-13-13---14-14-14---16--16-16--16---14------14-------|
A|------------14-14-14---16--16-16--16---14------14-------|
E|--------------------------------------------------------|


RHYTHM PART

e|-11-11----11--0--0----7-----9--9------9-----------------|
B|-14-14----13--11-11---9-----12-12-----11--9--9------9---|
G|-13-13----13--11-11---9-----11-11-----11--11-11-----10--|
D|-13-13-13-----9--9----------11-11--11-----11-11-----11--|
A|------------------------------------------11-11--11-----|
E|--------------------------------------------------------|

e|-11-11----11--0--0----7-----9--9------9-----------------|
B|-14-14----13--11-11---9-----12-12-----11--9--9------9---|
G|-13-13----13--11-11---9-----11-11-----11--11-11-----10--|
D|-13-13-13-----9--9----------11-11--11-----11-11-----11--|
A|------------------------------------------11-11--11-----|
E|--------------------------------------------------------|

AND KEEP REPEATING UNTIL NECCESARY

-----------------------------------------------------------------------------

YOUR LOVE

e|-5--4--4--4--4--4--6--6---6----------------------|
B|-5--5--5--5--5--5--7--7---7--7---7----7---7------|
G|-6--6--6--6--6--6--6--6---6--8---8----8---8------|
D|-----------------------------9---9----9---9------|
A|-------------------------------------------------|
E|-------------------------------------------------|

THIS IS PLAYED IN THE BACKGROUND AND SOMETIMES SOLO

e|------------------------------------------------------|
B|------------------------------------------------------|
G|------------------------------------------------------|
D|------------------------------------------------------|
A|----------------------------0----0-----2----2----2----|
E|--2---2----2---2----2---------------------------------|

e|----------------------------------------------|
B|----------------------------------------------|
G|----------------------------------------------|
D|----------------------------------------------|
A|------------------------0---0------2----------|
E|-2---2----2---2----2--------------------------|

-----------------------------------------------------------------------------

HYPERSPEED

AFTER THE SPACE INTRO THESE CHORDS ARE PLAYED

e|-19--------------17----------19-------17--|
B|-19--------------0-----------19-------0---|
G|-20--------------22----------20-------22--|
D|-----------------22-------------------22--|
A|-14--------------0-----------14-------0---|
E|-7---------------17----------7--------17--|

THIS IS PLAYED ONE PART AFTER EVERY CHORD

e|------2------1--------------2---14-----13--------------------------14---13--|
B|------------------------------------------------------------------11--------|
G|----------------------------------------------------11------10--------------|
D|--4-------------------------------------------------------------------------|
A|----------------------------------------------------------------------------|
E|---------------------------------------------14-----------------------------|

-----------------------------------------------------------------------------

CHARLY (TRIP INTO DRUM N BASS)

INTRO

e|---------------------------------------------------------|
B|---------------------------------------------------------|
G|---------------------------------------------------------|
D|------------------------4--4-----------------------------|
A|-4--4--444--4-4-4--4-4-----------------------------------|
E|-----------------------------2--2--2-2-2-----------------|

WEIRD SORT OF THING THAT SOUNDS LIKE ITS PLAYING BACKWARDS

e|-13---11-13--------------------------------|
B|-------------13---11--13-------------------|
G|---------------------------11--------------|
D|-------------------------------------------|    X3
A|-------------------------------------------|
E|-------------------------------------------|

e|--------9---14--14-11----------------------|
B|-----9-------------------------------------|
G|--9----------------------------------------|
D|-------------------------------------------|
A|-------------------------------------------|
E|-------------------------------------------|

KEYBOARD PART PLAYED TOWARDS THE END AND HALFWAY THROUGH THE SONG

e|-13---13---16---13-19----18----16------18---16---18--18--19--23--25-|
B|----------------------18----18---18---------------------------------|
G|--------------------------------------------------------------------|
D|--------------------------------------------------------------------|
A|--------------------------------------------------------------------|
E|--------------------------------------------------------------------|

-----------------------------------------------------------------------------

OUT OF SPACE
MAIN SYNTH USED IN THE SONG

e|-12--11--12--11--12--11--12--15--16--15--16--15--16--15-----------|
B|---------------------------------------------------------17--17---|
G|------------------------------------------------------------------|
D|------------------------------------------------------------------|
A|------------------------------------------------------------------|
E|------------------------------------------------------------------|

THE CHORDS PLAYED WHEN THE MAIN SYNTH IS USED

e|-9---------1--------11--------------9-------11--------9-------1---------11-|
B|-9---------2--------11--------------9-------11--------9-------2---------11-|
G|-9------------------12--------------9-------12--------9-----------------12-|
D|---------------------------------------------------------------------------|
A|---------------------------------------------------------------------------|
E|---------------------------------------------------------------------------|

AND REPEAT FROM
[ Tab from: http://www.guitartabs.cc/tabs/p/prodigy/experience_tab.html ]
e|--1--------------------|
B|--2--------------------|
G|-----------------------|
D|-----------------------|
A|-----------------------|
E|-----------------------|


" IM FOR SENDING TO OUT OF SPACE,
TO FIND ANTOHER RACE''.

e|---3---5-5---5-5-5--12--------1210---8-10-12------|
B|-5--------------------------------------------10--|
G|--------------------------------------------------|
D|--------------------------------------------------|
A|--------------------------------------------------|
E|--------------------------------------------------|

e|---------------------12--------1210---8-10-12------|
B|---8---1010---101010---------------------------10--|
G|-9-------------------------------------------------|
D|---------------------------------------------------|
A|---------------------------------------------------|
E|---------------------------------------------------|

-----------------------------------------------------------------------------

E.I.T.P (188 RISING)

THIS SOUNDS LIKE A BASS XYLOPHONE,
NOT LONG AFTER THE INTRO

e|-------17-20---19------------17---16------|
B|--17--------------17------17----------17--|
G|------------------------------------------|
D|----------------------19------------------|
A|------------------------------------------|
E|------------------------------------------|

-----------------------------------------------------------------------------

WEATHER EXPERIENCE

KEYBOARD PART PLAYED AFTER THE SAMPLED WEATHER BROADCAST

e|---9--14--12--14-----------14----16---0--7--19--17--19--|
B|-7---------------------14-------------------------------|
G|--------------------------------------------------------|
D|--------------------------------------------------------|
A|--------------------------------------------------------|
E|--------------------------------------------------------|

e|-17--------------14--------------|
B|-----17--15----------------------|
G|------------16-------------------|
D|---------------------------------|
A|---------------------------------|
E|---------------------------------|

-----------------------------------------------------------------------------

FIRE (SUNRISE VERSION)

Intro

e|-7-7-7-7-3-3-5-5-7-7-7-7--------|
B|-7-7-7-7-3-3-5-5-7-7-7-7--------|
G|--------------------------------|
D|--------------------------------|
A|--------------------------------|
E|--------------------------------|

-----------------------------------------------------------------------------

R.I.T.J.B

" FEEL THE JUNGLE VIBE BABY''

e|--181716-14----14------------------6-6-6-7-6-6-6-7-----|
B|-----------16------16--16-----16-----------------------|
G|-------------------------------------------------------|
D|-------------------------------------------------------|
A|-------------------------------------------------------|
E|-------------------------------------------------------|

WHILE THATS PLAYING THIS IS USED AS BACKING

e|--5--5--5--5--5--5---------------|
B|---------------------------------|
G|---------------------------------|   AND SO ON
D|---------------------------------|
A|---------------------------------|
E|---------------------------------|

-----------------------------------------------------------------------------

DEATH OF T.P.D

" LET IT ROCK YOU, LET IT ROCK YOU''

e|----17---16---17---17--------16----17---17-------16--|
B|-15---15---15------------15-----15------------15-----|
G|-----------------------------------------------------|
D|-----------------------------------------------------|
A|-----------------------------------------------------|
E|-----------------------------------------------------|

e|----17--------------------------|
B|-15------15---------------------|
G|-----------14---14--------------|
D|--------------------------------|
A|--------------------------------|
E|--------------------------------|

AND THE BASS PLAYED BEHIND IT IS

e|-------------------------------------------------------|
B|-------------------------------------------------------|
G|-------------------------------------------------------|
D|---0----0-----0---0------------------------------------|
A|-4-------------------0----0-------0------------------0-|
E|---------------------------------------0-------0-------|

-----------------------------------------------------------------------------

FIRE (ORIG)

THIS IS THE MAIN  PART OF THE SONG WITH THE WACKY VOCALS

E||--1--1--1--1--1--1--1--1--|-------------1----------|
B||--------------------------|--4----4--4-------3--3--|
G||--------------------------|------------------------|
D||--------------------------|------------------------|
A||--------------------------|------------------------|
E||--------------------------|------------------------|

CONTINUED

--------------------------|--------------------------|
--3----3----3-3----3----3-|--3----3----3-3----3----3-|
----------3-----------3---|----------3-----------3---|
--------------------------|--------------------------|
--------------------------|--------------------------|
--------------------------|--------------------------|

-----------------------------------------------------------------------------

CHARLY (ORIG)

THIS SHORT PIANO IS PLAYED WITH THE MAIN SYNTH

e|--21-28-----28---------21-28-----28---|
B|--------------------------------------|
G|--------------------------------------|
D|--------------------------------------|
A|--------------------------------------|
E|--------------------------------------|

WEIRD SYNTH

e|--4-----------4--------4------------------0----5-------5---2-|
B|-----4------------4--------4-----------0---------------------|
G|---------------------1--------1------------------------------|
D|--6------6--------------------------4------------------------|
A|-------------------------------------------------------------|
E|-------------------------------------------------------------|

-----------------------------------------------------------------------------


Charly (Alley Cat Mix)

E|-------------------------------------|
B|-------------------------------------|
G|-------------------------------------|
D|-------------------------------------|
A|-------------------------------------|
E|-55555-555555-555555-1111-0-0-0------|

This is played throughout the song

-----------------------------------------------------------------------------

G-FORCE

Intro

You play these twice
E-|-4----------------------------------0---------------------------|
B-|-5----------------------------------0-------------0----------2--|
G-|-6----------------------------------1-------------1----------1--|
D-|-6----------------------------------2-------------2----------3--|
A-|-4----------------------------------2---------------------------|
E-|-4----------------------------------0---------------------------|


Then there's the next bit

E-|-----------------------------------------------------------------|
B-|-----------2-------0------2-------------------2-------0------2---|
G-|-1-------------1--------------------1-------------1--------------|
D-|-----------------------------------------------------------------|
A-|-----------------------------------------------------------------|
E-|-----------------------------------------------------------------|


E-|-0---------0--------------0---------0----------------------------|
B-|-----2---------2--------------2---------2------------------------|
G-|-----------------------------------------------------------------|
D-|-----------------------------------------------------------------|
A-|-----------------------------------------------------------------|
E-|-----------------------------------------------------------------|

E-|-3---2---0-----3---2---0------3---2---0-------------------------|
B-|----------------------------------------------2-----------------|
G-|----------------------------------------------------------------|
D-|----------------------------------------------------------------|
A-|----------------------------------------------------------------|
E-|----------------------------------------------------------------|

Main Riff/Synth Sound
E-|----------------------------------------------------------------------|
B-|----------------------------------------------------------------------|
G-|----------------------------------------------------------------------|
D-|----------------------------------------------------------------------|
A-|-4-------------0------------------4---4---4-------0--------------0----|
E-|-----------2-----------2----------------------2-----------2-----------|


=============================================================================

==============================NOTE===========================================
SOME OF THESE TABS ARE TAKEN FROM NUMEROUS SOURCES, THOUGH MOST I TABBED MYSELF, BUT I 
THEM ALL UP INSTEAD OF INTERNET SEARCHING, SO IF YOU ARE BORED, RATE THIS, IF U LUV OR H8 
ITS NICE TO KNOW WHAT SUM1 THINKS OF UR TAB

=============================================================================
Comments