Prodigy - Charly Chords & Tabs

 

Charly Chords & Tabs

Prodigy Chords & Tabs

Version: 2 Type: Tab 0 ratings
1 star 2 stars 3 stars 4 stars 5 stars
comments

Charly Tab

On only for the headstrong as an outro.


[ Tab from: http://www.guitartabs.cc/tabs/p/prodigy/charly_tab_ver_2.html ]
e|---9--14--12--14-----------14----16---0--7--19--17--19--|
B|-7---------------------14-------------------------------|
G|--------------------------------------------------------|
D|--------------------------------------------------------|
A|--------------------------------------------------------|
E|--------------------------------------------------------|

e|-17--------------14--------------|
B|-----17--15----------------------|
G|------------16-------------------|
D|---------------------------------|
A|---------------------------------|
E|---------------------------------|
Comments