Prodigy - Charly Chords & Tabs

 

Charly Chords & Tabs

Prodigy Chords & Tabs

Version: 1 Type: Tab 0 ratings
1 star 2 stars 3 stars 4 stars 5 stars
comments

Charly Tab

HIS SHORT PIANO IS PLAYED WITH THE MAIN SYNTH

e|--21-28-----28---------21-28-----28---|
B|--------------------------------------|
G|--------------------------------------|
D|--------------------------------------|
A|--------------------------------------|
E|--------------------------------------|

WEIRD SYNTH
[ Tab from: http://www.guitartabs.cc/tabs/p/prodigy/charly_tab.html ]
e|--4-----------4--------4------------------0----5-------5---2-|
B|-----4------------4--------4-----------0---------------------|
G|---------------------1--------1------------------------------|
D|--6------6--------------------------4------------------------|
A|-------------------------------------------------------------|
E|-------------------------------------------------------------|
Comments