Prodigy - Breathe Chords & Tabs

 

Breathe Chords & Tabs

Prodigy Chords & Tabs

Version: 3 Type: Tab 0 ratings
1 star 2 stars 3 stars 4 stars 5 stars
comments

Breathe Tab

Prodigy - Breathe - From album with the scorpion on the front - 
around '97 or '98 released

Not really into the Prodigy much and they haven't released anything
 for a while but the intro to this is awesome.

Intro/main riff: 

E|---------------------------------------------------------------------- 
B|----------------------------------------------------------------------- 
G|------------------------------------------------------------------------ 
D|-----------------4-------4---------------0---0---0---0---0---0---0---0-0- 
A|-6---6---6---6-------6-------8---6---8------------------------------------ 
E|--------------------------------------------------------------------------- 
[ Tab from: http://www.guitartabs.cc/tabs/p/prodigy/breathe_tab_ver_3.html ]
Chorus: 
E|-6-------------------------------5---------------4---------------3----- 
B|-6-------------------------------5---------------4---------------4------ 
G|-6-------------------------------5---------------4---------------3------- 
D|-8-------------------------------7---------------6---------------5-------- 
A|-8-------------------------------7---------------6---------------6--------- 
E|-6-------------------------------5---------------4---------------3---------- 
Singer 1: breathe the pressure          come play my game, I’ll test ya 
    
2: come                           play            my              game 

E|-------------------------------- 
B|--------------------------------- 
G|-0---------------2-------3-------- 
D|----------------------------------- 
A|------------------------------------ 
E|------------------------------------- 
1: phsychosomatic, addict, insane 

2: phsycho      -somatic, addict, insane 

Quiet part: 
E|-------------------------------------------------------------------------------- 
B|--------------------------------------------------------------------------------- 
G|---------------------------------------------------------------------------------- 
D|-----------------------------------------------------------------------------------A|-9-----9-------9---8-----------6---8-------8---8-------6-------6---6---5----6-8 
E|-11----11------11--11----------6---8-------8---8-------6-------6---6---5----6-8-

Play it through and you will start to get an idea of the timing - 
when you listen to the song, it's not too tough
Comments