Prodigy - Breathe Chords & Tabs

 

Breathe Chords & Tabs

Prodigy Chords & Tabs

Version: 1 Type: Bass Tab 0 ratings
1 star 2 stars 3 stars 4 stars 5 stars
comments

Breathe Bass Tab

Song: Breathe
Band: Prodigy
Album: Fat of the land
Tabbed by BENDA  wacka_smacka@hotmail.com
Member of the bass tab archive ~ www.basstabarchive.com

Main riff(keyboard)
|-----------------------------------------|
|---------4---4-3---3---------------------|
|-6-6-6-6---6---------5-5-5-5-5-5-5-5-5/6-|
|-----------------------------------------|
[ Tab from: http://www.guitartabs.cc/tabs/p/prodigy/breathe_btab.html ]
Bass riff
|-----------------------------------------------------------------|
|-----------------------------------------------------------------|
|-4h6-6-6-6-6-6-6-4h6-6-6-6-6-6-6-4h6-6-6-6-6-6-6-4h6-6-6-4h6-6-6-|
|-----------------------------------------------------------------|

Verse
"...come play my game..."
|-------|-----------| then bass riff x1
|-------|-----------|
|-------|-----------|
|---6---|---5---4---|

Acoustic guitar
|----------------------------------|
|----------------------------------|
|-8---8-11-8---11-10-10-10-8-8-7-8-|
|-8---8-11-8---11-10-10-10-8-8-7/8-|
|-6---6-9--6---9--8--8--8--6-6-5/6-|
|----------------------------------|


Comments