Prodigy - Babys Got A Temper Chords & Tabs

 

Babys Got A Temper Chords & Tabs

Prodigy Chords & Tabs

Version: 1 Type: Tab 0 ratings
1 star 2 stars 3 stars 4 stars 5 stars
comments

Babys Got A Temper Tab

Artist: The Prodigy
Song: Baby's got a temper(2002)
album: Baby's got a temper(cd single)

Tabbed by: Bogbrush
Email: taff733@aol.com

Intro
e|-7-0-765-5-0-432--------------------------|
B|------------------------------------------|
G|------------------------------------------|
D|------------------------------------------|
A|------------------------------------------|
E|------------------------------------------|

Here is the bit that is played throughout the verses and before them.
e|-------------------------------------------|
B|-------------------------------------------|
G|-------------------------------------------|
D|-------------------------------------------|
A|-22-----2----------------------------------|
E|-00-----0----------------------------------|

Pre chorus

e|-------------------------------------------|
B|-------------------------------------------|
G|-------------------------------------------|
D|-------------------------------------------|
A|-------------------------------------------|
E|-12121212121212121212--1010-88-66-44-------|
[ Tab from: http://www.guitartabs.cc/tabs/p/prodigy/babys_got_a_temper_tab.html ]
              " We got rhyhyponol, just forget it all''

(second bit played as well as the above)

e|--7-----6-----5-----4------------------------|
B|--7-----6-----5-----4------------------------|
G|---------------------------------------------|
D|---------------------------------------------|
A|---------------------------------------------|
E|---------------------------------------------|

Chorus

e|--7-----6-----5-----4------------------------|
B|--7-----6-----5-----4------------------------|
G|---------------------------------------------|
D|---------------------------------------------|
A|---------------------------------------------|
E|---------------------------------------------|


solo

e|-------------------------------------------|
B|-------------------------------------------|
G|-------------------------------------------|
D|-------------------------------------------|
A|-------------------------------------------|
E|-12121212121212121212--1010-88-66-44-------|

After that play the chorus a few times and the track just fades away.


Thats just about it, any errors just email me. Enjoy!
Comments