Prodigy - Androids Chords & Tabs

 

Androids Chords & Tabs

Prodigy Chords & Tabs

Version: 1 Type: Tab 0 ratings
1 star 2 stars 3 stars 4 stars 5 stars
comments

Androids Tab

ANDROIDS
ALBUM: WHAT EVIL LURKS

THIS IS VERY UNHEARD OF, BUT A CLASIC, SO I THOUGHT I'D TAB IT. THE
W.E.L IS NOT AVAILABLE ANYMORE. ANYHOW, HERE IS THE TAB.

INTRO

E|--18------------------|--23------25------21----|-------------|
B|--23------18----------|------------------------|--23---------|
G|--18------------------|------------------------|----------22-|
D|----------------------|------------------------|--22---------|
A|----------------------|------------------------|--23---------|
E|----------------------|------------------------|-------------|
[ Tab from: http://www.guitartabs.cc/tabs/p/prodigy/androids_tab.html ]
E|--23------25------21----|--------------|
B|------------------------|--23----------|
G|------------------------|----------22--|
D|------------------------|--20----------|
A|------------------------|--21----------|
E|------------------------|--------------|

THE BEAT COMES IN WITH THE INTRO AND THIS STARTS

E|-----18-17-16-18-17-16-20--18-17-16-18-17-16-|
B|---------------------------------------------|
G|--17-----------------------------------------|
D|---------------------------------------------|
A|---------------------------------------------|
E|---------------------------------------------|


THIS IS THE MAIN "RIFF'' OF THE SONG

e|---------------------------|
B|---------------------------|
G|---------------------------|
D|---------------------------|
A|-6-6-6-6-6-0-0-0-3-3-3-0---|
E|---------------------------|

THATS ALL

ANY MISTAKES, ERRORS, EMAIL ME AT TAFF733@AOL.COM
Comments