Prodical - Crawl Chords & Tabs

 

Crawl Chords & Tabs

Prodical Chords & Tabs

Version: 1 Type: Bass Tab 0 ratings
1 star 2 stars 3 stars 4 stars 5 stars
comments

Crawl Bass Tab

Band: Prodical
Song: Crawl
Tabbed by Matt


/=SLIDE DOWN
^=SLIDE UP

Intro REAPEAT TILL HEAVY PART
G-----------------------------------------------------------
D-----------------------------------------------------------
A------------------4444444444444--------------55555555------
E--22222222222222----------------44444444444----------------
[ Tab from: http://www.guitartabs.cc/tabs/p/prodical/crawl_btab.html ]
HEAVY PART REPEAT 4X
G---------------------------------------7-------------------
D-----------------------------------8------------------5----
A-----4 /9-------5 ^1--------------------------------6------
E----4---------5-------7777777777---------777777777---------


BASS SOLO REPEAT 4X
G-----9-9-9-9-9-9----5-5-5-5-5-5---7-7-7-7-7-7-7------------
D-----9-9-9-9-9-9----5-5-5-5-5-5---7-7-7-7-7-7-7------------
A-----------------------------------------------------------
E-----------------------------------------------------------


BACK TO HEAVY PART THEN PLAY THAT TILL END OF SONG
Comments