Procol Harum - Whiter Shade Of Pale Chords & Tabs

 

Whiter Shade Of Pale Chords & Tabs

Procol Harum Chords & Tabs

Version: 3 Type: Tab 0 ratings
1 star 2 stars 3 stars 4 stars 5 stars
comments

Whiter Shade Of Pale Tab

   
#----------------------------------PLEASE NOTE---------------------------------#
#This file is the author's own work and represents their interpretation of the #
#song. You may only use this file for private study, scholarship, or research. #
#------------------------------------------------------------------------------##
From: yjohn@gpu.utcc.utoronto.ca (John Ross)


                         A WHITER SHADE OF PALE

               Keith Reid and Gary Brooker (Procul Harum)
                               (C) 1967

Intro: (all notes in first position)

C        Am       F        Dm       G        Em  G7   C   F    G   F G7
--------|--------|--------|--------|--------|--------|--------|--------|
--------|--------|------01|--------|0-----13|--------|--------|--------|
--------|--------|2-------|--------|0-------|0-0-----|--------|--------|
2-------|20---02-|3-------|323---0-|0-------|-3---323|320--023|--023230|
3-------|3-323--3|3-------|--------|--------|--------|---33---|23------|
3-------|--------|--------|--------|--------|--------|--------|--------|
[ Tab from: http://www.guitartabs.cc/tabs/p/procol_harum/whiter_shade_of_pale_tab_ver_3.html ]
C                         Am
   We skipped the light fandango    		G  F#               Em        D
                G  D/F#                Em     Em7/D
>		We skipped the last fandango
>		C      Bm                     Am     G
                C      G/B                    Am     Am7/G
>		Turned cart-wheels `cross the floor
>		D     C               Bm      Am
                D     D7/C            Bm7     D7/A
>		I was feeling kind of sea-sick

and so on

>		D         G    F#      Em       D
                D13       G    D/F#    Em      Em7/D
>	CHORUS: And so we watched, and later
as in the verse except for the ending which was OK:
>		       G      C        G     D
>		Turn a whiter shade of pale

-- 
------------------------------------------------------------------------------
!       Jari Riitala	    !  	  Kuusiharjunkatu 34        !                !
! 	    	 	    !	  20660 Littoinen           !    100 100 1   !
!      jriitala@utu.fi      !	  Finland                   !                !
!   JRIITALA@KONTU.UTU.FI   !  	                            !  - Neil Peart  !
!     riitala@hcc.utu.fi    !     phone: +358 21 442 371    !                !
------------------------------------------------------------------------------



Comments