Probot - Shake Your Blood Chords & Tabs

 

Shake Your Blood Chords & Tabs

Probot Chords & Tabs

Version: 2 Type: Tab 0 ratings
1 star 2 stars 3 stars 4 stars 5 stars
comments

Shake Your Blood Tab

--------------------------------------------------------------------------
"Shake Your Blood" w/Lemmy - PROBOT 
--------------------------------------------------------------------------
Tabbed by: -Carl.
Email -mutatedidiot@aol.com
Tuning: Drop D.

This is just the basics, you can work on the rest. 
To perfection. If you must.

INTRO
e|--------------------------------------------------|
B|--------------------------------------------------|
G|--------------------------------------------------|
D|--------------------------------------------------|
A|----6--6--6----6--6--6----------------------------|
D|------8--8--8----8--8--8--------------------------|

VERSE
e|--------------------------------------------------|
B|--------------------------------------------------|
G|---------------8----------------------------------|
D|----10----8-10------------------------------------|
A|----10--------------------------------------------|
D|----10--------------------------------------------|

      ^Not sure how many times to play that.
       But listen to the song to figure it out.
[ Tab from: http://www.guitartabs.cc/tabs/p/probot/shake_your_blood_tab_ver_2.html ]
CHORUS
e|-----------------------------------------------------------------------|
B|-----------------------------------------------------------------------|
G|----------------------------------------8-------------------------8----|
D|----1-1-1----3-3-3----10-10-10-10--8-10-----15-13--10-10-10--8-10------|
A|----1-1-1----3-3-3----10-10-10-10-----------15-13--10-10-10------------|
D|----1-1-1----3-3-3----10-10-10-10-----------15-13--10-10-10------------|

(X2)            Some of this riff might be bass.
                But it's hard to tell. Sounds right anyway.


-VERSE RIFF AGAIN.

-CHORUS AGAIN.

THEN BRIDGE I THINK IT'S CALLED...
e|------------------------------------|
B|------------------------------------|
G|------------------------------------|
D|----10-----15-----------------------|
A|----10-----15------6--6--6----------|
D|----10(x5)-15(x5)----8--8--8--------| 

Play that a certain amount of times.

-Then there's some bass.

-THEN LAST VERSE.

-THEN LAST CHORUS.

THEN END ON...
e|--------------------------------------------|
B|--------------------------------------------|
G|--------------------------------------------|
D|----------------10/0------------------------|
A|----6--6--6-----10/0------------------------|
D|------8--8--8---10/0------------------------|


This song deserves a solo.
As do all songs.
Comments