Probot - Shake Your Blood Chords & Tabs

 

Shake Your Blood Chords & Tabs

Probot Chords & Tabs

Version: 1 Type: Tab 0 ratings
1 star 2 stars 3 stars 4 stars 5 stars
comments

Shake Your Blood Tab



intro:
--------------------------------------
--------------------------------------
--------------------------------------
-8-----8----8----8----8-----8---------
-6-8---6-8--6-8--6-8--6--8--6--8----10
---6-----6----6----6-----6-----6----8-
[ Tab from: http://www.guitartabs.cc/tabs/p/probot/shake_your_blood_tab.html ]
main riff:
                                    "rock out""make it good"
-----------------------------------------------------
-----------------------------------------------------
-----------------------------------------------------
------------------------------------8--8---10--10----
--10--x6-----------6----------------6--6---8---8-----repeat
--8---------6 h 8------------------------------------
thats about it listen to song to get rythem
Comments