Probot - Red War Chords & Tabs

 

Red War Chords & Tabs

Probot Chords & Tabs

Version: 1 Type: Tab 0 ratings
1 star 2 stars 3 stars 4 stars 5 stars
comments

Red War Tab

------------------------L------------------------------------
Probot (Max Cavalera)   L  h=hammeron   p=pulloff
Red War Tunning Drop D  L  x=Palm Mute  ()=play if u want
------------------------L------------------------------------
______________________________________________________________
Intro (2nd Guitar)
----------------------------|
-1-111-11-11-1-111-11-11-1--|
----------------------------|
----------------------------|
----------------------------|
----------------------------|

(1st Guitar)
--------------------|
--------------------|
--------------------|
--------------------|
-3-2-3-4-1-2-3------|
-1-0-1-2-3-0-1------|
______________________________________________________________

Refrain:
(1st Guitar)
------------|
------------|
------------|(8Times)
------------|
-3-2-1------|
-3-2-1------|

After 4Times
(2nd Guitar)
-=---------------=----------------------------------|
-0h3p0h3p0h3p0h3p0h2p0h2p0h2p0h2-1------------------|
----------------------------------------------------|
----------------------------------------------------|(4Times)
----------------------------------------------------|
----------------------------------------------------|
Only Pick the Tabs with the = over it ( for beginners ).
______________________________________________________________


Chours
[ Tab from: http://www.guitartabs.cc/tabs/p/probot/red_war_tab.html ]
(1st Guitar)        (Guitar 2)
-----------------------------------------------|
--------------------1-111-11-11-1-111-11-11-1--|
-----------------------------------------------|
-----------------------------------------------|
-4--3-4--5--3-4--3-----------------------------|
-2--1-2--3--1-2--1-----------------------------|
______________________________________________________________
Refrain:
______________________________________________________________
Brakedown:
-------------|
-------------|
-------------|
---444444-2--|
---222222-0--|
______________________________________________________________
After the brakedown the Refrain again but 4times with that hammer on and pullof.
______________________________________________________________

Bridge: (1st and 2nd Guitar)
---------------------|
---------------------|
---------------------|
-x-xxx-x-xx-xxx-x-x--|
-0-000-0-00-000-0-0--|
-0-000-0-00-000-0-0--|
______________________________________________________________

Refrain: 1st Guitar Part and 2nd play 8time together
______________________________________________________________

Breakdown
______________________________________________________________
Chors
______________________________________________________________


So this is my first tab. This song is just fuckin great.
If u have some corrections PLZ!!!! mail me: pete@careful-fanpage.de
Comments