Pro-pain - Down In The Dumps Chords & Tabs

 

Down In The Dumps Chords & Tabs

Pro-pain Chords & Tabs

Version: 1 Type: Tab 0 ratings
1 star 2 stars 3 stars 4 stars 5 stars
comments

Down In The Dumps Tab

"Down in the dumps" by Pro-Pain
from the album "Truth Hurts"

Tabbed by: Arto (ajalkane@cc.hut.fi)


Almost everything on this song is palm muted, so I didn't
bother to write them down specifically.

    Intro riff

e|---------------------------------------|----|----|-------------|
B|---------------------------------------|----|----|-------------|
G|---------------------------------------|----|----|-------------|
D|---------------------------------------|----|--2-|-------------|
A|------------2--------------------------|--1-|----|-------------|
E|-0--0-0--0-------0--0-0-0-0-3-2-0-2-3-0|----|----|-0--0-0--0-0-|

Every fourth time play bar 3 instead of bar 2.
At the last time, the last bar (4) is not played.


    Verse riff

e|------------------------------------------------------|
B|------------------------------------------------------|
G|------------------------------------------------------|
D|------------------------------------------------------|
A|------------------------------------------------4--5--|
E|-0--0--0-0-0-0--0--0-0--0-0--0-0-0-0-0-0-0-0-0--2--3--|

e|------------------------------------------------------|
B|------------------------------------------------------|
G|------------------------------------------------------|
D|------------------------------------------------------|
A|------------------------------------------------5--4--|
E|-0--0--0-0-0-0--0--0-0--0-0--0-0-0-0-0-0-0-0-0--3--2--|

[ Tab from: http://www.guitartabs.cc/tabs/p/pro_pain/down_in_the_dumps_tab.html ]
    Chorus
e|--------------------------------------------------------------------|
B|--------------------------------------------------------------------|
G|--------------------------------------------------------------------|
D|--------------------------------------------------------------------|
A|-9----9-12---10----------------------------------------------4-5-7--|
E|-7----7-10---8--------2--2-2--2-0--2--2-2--2-0--2--2-2--2-0--2-3-5--|

e|--------------------------------------------------------------------|
B|--------------------------------------------------------------------|
G|--------------------------------------------------------------------|
D|--------------------------------------------------------------------|
A|-9----9-12---10---------------------------------4--4--2--4----------|
E|-7----7-10---8--------2--2-2--2-0--2--2-2--2-0--2--2--0--2----------|


Then the song continues
Verse... chorus... intro... solo (intro riff under solo) ... chorus


Then comes outro riff (which is basically verse riff two steps higher):

e|------------------------------------------------------|
B|------------------------------------------------------|
G|------------------------------------------------------|
D|------------------------------------------------------|
A|------------------------------------------------6--7--|
E|-2--2--2-2-2-2--2--2-2--2-2--2-2-2-2-2-2-2-2-2--4--5--|

e|------------------------------------------------------|
B|------------------------------------------------------|
G|------------------------------------------------------|
D|------------------------------------------------------|
A|------------------------------------------------7--6--|
E|-2--2--2-2-2-2--2--2-2--2-2--2-2-2-2-2-2-2-2-2--5--4--|

Play outro two times and then
e|---------------------------------|
B|---------------------------------|
G|---------------------------------|
D|---------------------------------|
A|-4--4--2--4----------------------|
E|-2--2--0--2----------------------|
Comments