Pro-pain - Crush Chords & Tabs

 

Crush Chords & Tabs

Pro-pain Chords & Tabs

Version: 1 Type: Tab 0 ratings
1 star 2 stars 3 stars 4 stars 5 stars
comments

Crush Tab

   
pro-pain
crush



RIFF.1
(Guit.I&II)
           P.M.--------------|             P.M.--|
 E|--------------------------------------------------------------------|
 B|--------------------------------------------------------------------|
 G|--------------------------------------------------------------------|
 D|--5---4---------------------4-2-4-5---4---------4--7---7-7-2---2-2--|
 A|--5---4---------------------4-2-4-5---4---------4--7---7-7-2---2-2--|
 E|--3---2-2-2-2-2-2-2-2-2-2-2-2-0-2-3---2-2-2-2-2-2--5---5-5-0---0-0--|

          P.M.--------------|             P.M.--|
 |--------------------------------------------------------------------|
 |--------------------------------------------------------------------|
 |-----------------------------------------------------------5---5-5--|
 |--5---4---------------------4-2-4-5---4---------4--7---7-7-5---5-5--|
 |--5---4---------------------4-2-4-5---4---------4--7---7-7-3---3-3--|
 |--3---2-2-2-2-2-2-2-2-2-2-2-2-0-2-3---2-2-2-2-2-2--5---5-5----------|


Repeat RIFF.1


RIFF.2
(Guit.I&II)
        P.M.------|     P.M.  P.M.  PM
 |---------------------------------------|
 |---------------------------------------|
 |---------------------------------------|
 |--2---------------7-------10----10--9--|
 |--2---------------5-------8-----8---7--|
 |--0---0-0-0-0-0-0-----0-0-----0---0----|

        P.M.------|     P.M.  P.M.
 |---------------------------------------|
 |---------------------------------------|
 |---------------------------------------|
 |------------------7-------5------------|
 |------------------5-------3-----3---2--|
 |------0-0-0-0-0-0-----0-0-----0-1---0--|

       P.M.------|     P.M.  P.M.  PM
 |---------------------------------------|
 |---------------------------------------|
 |---------------------------------------|
 |-----------------7-------10----10--9\--|
 |-----------------5-------8-----8---7\--|
 |-----0-0-0-0-0-0-----0-0-----0---0-----|


Repeat RIFF.1 2x

Repeat RIFF.2


RIFF.3&4
Guit.I
    F#                                  G               E
    o                                   o               o
Guit.II   P.M.            P.M.                P.M.            P.M.
 |-----------------------------------|-----------------------------------|
 |-----------------------------------|-----------------------------------|
 |-----------------------------------|-----------------------------------|
 |-----------------------------------|-----------------------------------|
 |------4-----5---4-----4-----5---4--|------5-----7---5-----2-----3---2--|
 |--2-----2-2-------2-----2-2--------|--3-----3-3-------0-----0-0--------|
[ Tab from: http://www.guitartabs.cc/tabs/p/pro_pain/crush_tab.html ]
    F#                                  E               G
    o                                   o               o
          P.M.            P.M.                P.M.            P.M.
 |-----------------------------------|-----------------------------------|
 |-----------------------------------|-----------------------------------|
 |-----------------------------------|-----------------------------------|
 |-----------------------------------|-----------------------------------|
 |------4-----5---4-----4-----5---4--|------2-----3---2-----5-----7---5--|
 |--2-----2-2-------2-----2-2--------|--0-----0-0-------3-----3-3--------|


Repeat RIFF.3&4 3x


RIFF.5
(Guit.I)
        P.M.----------------------|     P.M.------|     P.M.------|
 |-------------------------------------------------------------------|
 |-------------------------------------------------------------------|
 |-------------------------------------------------------------------|
 |--4-------------------------------5---------------2----------------|
 |--4-------------------------------5---------------2----------------|
 |--2---2-2-2-2-2-2-2-2-2-2-2-2-2-2-3---3-3-3-3-3-3-0---0-0-0-0-0-0--|

        P.M.----------------------|     P.M.------|     P.M.------|
 |-------------------------------------------------------------------|
 |-------------------------------------------------------------------|
 |-------------------------------------------------------------------|
 |--4-------------------------------2---------------5----------------|
 |--4-------------------------------2---------------5----------------|
 |--2---2-2-2-2-2-2-2-2-2-2-2-2-2-2-0---0-0-0-0-0-0-3---3-3-3-3-3-3--|


Repeat RIFF.5


RIFF.1&6
Guit.I
    G   F#                          G   F#
    o   o                           o   o
Guit.II   P.M.--------------|             P.M.--|
 |--------------------------------------------------------------------|
 |--------------------------------------------------------------------|
 |--------------------------------------------------------------------|
 |--5---4---------------------4-2-4-5---4---------4--7---7-7-2---2-2--|
 |--5---4---------------------4-2-4-5---4---------4--7---7-7-2---2-2--|
 |--3---2-2-2-2-2-2-2-2-2-2-2-2-0-2-3---2-2-2-2-2-2--5---5-5-0---0-0--|

    G   F#                          G   F#
    o   o                           o   o
          P.M.--------------|             P.M.--|
 |--------------------------------------------------------------------|
 |--------------------------------------------------------------------|
 |-----------------------------------------------------------5---5-5--|
 |--5---4---------------------4-2-4-5---4---------4--7---7-7-5---5-5--|
 |--5---4---------------------4-2-4-5---4---------4--7---7-7-3---3-3--|
 |--3---2-2-2-2-2-2-2-2-2-2-2-2-0-2-3---2-2-2-2-2-2--5---5-5----------|


repeat RIFF.1


RIFF.7
(Guit.I&II)

 |--------------------------------------------------------------------|
 |--------------------------------------------------------------------|
 |--------------------------------------------------------------------|
 |--5---4-4-4-4-4-4-4-4-4-4-4-4-2-4-5---4-4-4-4-4-4--7---7-7-2---2-2--|
 |--5---4-4-4-4-4-4-4-4-4-4-4-4-2-4-5---4-4-4-4-4-4--7---7-7-2---2-2--|
 |--3---2-2-2-2-2-2-2-2-2-2-2-2-0-2-3---2-2-2-2-2-2--5---5-5-0---0-0--|


 |--------------------------------------------------------------------|
 |--------------------------------------------------------------------|
 |-----------------------------------------------------------5---5-5--|
 |--5---4-4-4-4-4-4-4-4-4-4-4-4-2-4-5---4-4-4-4-4-4--7---7-7-5---5-5--|
 |--5---4-4-4-4-4-4-4-4-4-4-4-4-2-4-5---4-4-4-4-4-4--7---7-7-3---3-3--|
 |--3---2-2-2-2-2-2-2-2-2-2-2-2-0-2-3---2-2-2-2-2-2--5---5-5----------|


Repeat RIFF.2


END:
(Guit.I&II)
    G   F#
Comments