Prljavo Kazali?te - Moj Bijeli Labude Chords & Tabs

 

Moj Bijeli Labude Chords & Tabs

Prljavo Kazali?te Chords & Tabs

Version: 1 Type: Tab 0 ratings
1 star 2 stars 3 stars 4 stars 5 stars
comments

Moj Bijeli Labude Tab

   
e|-------7-----5--------3-----1--------5-----3--------
H|-----0---0----------0---0----------0---0------------
G|---5-------5------2-------2------4-------4----------
D|----------------3--------------5------------------------
A|-0------------------------------------------------------
E|----------------------------------------------------
 					            
e|-------7-----5--------3-----1--------5-----3--------
H|-----0---0----------0---0----------0---0------------
G|---5-------5------2-------2------4-------4--------------
D|----------------3--------------5------------------------
A|-0------------------------------------------------------
E|---------------------------------------------------0





  Am                F               G                E
e|-------0-----0---------1-----1----------3-----3----------0-----0----
H|-----1---1-----1-----1---1-----1------3---3-----3------0---0-----0--
G|---2-------2-------2-------2--------4-------4--------1-------1------
D|--------------------------------------------------------------------
A|-0------------------------------------------------------------------
E|------------------1---------------3----------------0----------------


 Am            F                   G        E  
I bas me briga ko te nocas vozi kuci, briga me  
Am         F                         G  
I ako si i sretna ko sto kazes, mada znam da lazes  
E            Am                          
Sve to ubija me.              
AmFG   E                 Am   
Mmmmm, grlim hladne jastuke   
AmFG   E              
Mmmmm, moj bijeli labude.  

  Am                F                G                E
e|-0-----0-----0----1-----1-----1----3-----3-----3----0----0-----0----
H|---1-----1-----1----1-----1-----1----3-----3-----3----0----0-----0--
G|-----2-----2----------2-----2----------4-----4----------1----1------
D|--------------------------------------------------------------------
A|-0------------------------------------------------------------------
E|------------------1----------------3----------------0---------------
[ Tab from: http://www.guitartabs.cc/tabs/p/prljavo_kazali_te/moj_bijeli_labude_tab.html ]
Za to vrijeme druga gitara svira:

e|-----------------------------------------------------------------------
H|-5----------------6------------5---3----------------5h6p5-3-5p3---3-5--
G|--------------2-------------------------------------------------5------
D|-----------------------------------------------------------------------
A|-----------------------------------------------------------------------
E|-----------------------------------------------------------------------

I briga me sto nisi mjesec, a ni sunce, briga me  
Al' neces moci preko blatne kaljuze  
Cista stic' do moje postelje.  
Mmmm, grlim hladne jastuke  
Mmmm, moj bijeli labude.  
 

Refren:
E              F                       Hm 7/-5:       E4:
Moj bijeli labude                     e|---x---   e|---0--- 
G                   Am G D            H|---3---   H|---0---
Kad me jednom ne budeeeeee            G|---2---   G|---2---
                 F                    D|---3---   D|---2---
Sve ce vode, labude                   A|---2---   A|---2---
Hm7/-5       E4E                      E|---x---   E|---0---
Da se razbistre.  

Pratnja za solazu je ista kao i refren.

Solo:

e|---------------------------------------------
H|-5^---------------5-6-5-----5-6-5---5--------
G|----7--5-7-5----7-------7---------7---7-5----
D|------------------------------------------7--
A|---------------------------------------------
E|---------------------------------------------

e|-3p0--5--55-7-8-7--8--7h8p7------------------------------
H|------------------------------5-6-5---------5-6-5--3h5p3-
G|------------------------------------7-5------------------
D|----------------------------------------7----------------
A|---------------------------------------------------------
E|---------------------------------------------------------

e|-3p1p0-0-5-5-7-8-10-12-8--15-13-12-----------------------------12-
H|-----------------------------------15-13-15-----------12-13-15----
G|--------------------------------------------14--12s14-------------
D|------------------------------------------------------------------
A|------------------------------------------------------------------
E|------------------------------------------------------------------
Comments