Prljavo Kazali?te - Mi Pijemo Chords & Tabs

 

Mi Pijemo Chords & Tabs

Prljavo Kazali?te Chords & Tabs

Version: 1 Type: Tab 0 ratings
1 star 2 stars 3 stars 4 stars 5 stars
comments

Mi Pijemo Tab

   
UVOD:
1.git.:     D          G       A       D       G       A
2.git.: e|--10-10---10-3-3---3-5-5---5-10---10-3-3---3-5-5--|
        B|--10-10---10-3-3---3-5-5---5-10---10-3-3---3-5-5--|
        D|--11-11---11-4-4---4-6-6---6-11---11-4-4---4-6-6--|
        G|--12-12---12-5-5---5-7-7---7-12---12-5-5---5-7-7--|
        A|--12-12---12-5-5---5-7-7---7-12---12-5-5---5-7-7--|
        E|--10-10---10-3-3---3-5-5---5-10---10-3-3---3-5-5--|

1.git.:     D                     G             A
2.git.: e|--9-7-5--9-7-5--5h6-7---10-9-7--10-9--7-9-9-9--7-9--|
        B|----------------------------------------------------|
        D|----------------------------------------------------|
        G|----------------------------------------------------|
        A|----------------------------------------------------|
        E|----------------------------------------------------|

1.git.:     D                     G            A
2.git.: e|--9-7-5--9-7-5--5h6-7---10-9-7--10-9-7--|
        B|----------------------------------------|
        D|----------------------------------------|
        G|----------------------------------------|
        A|----------------------------------------|
        E|----------------------------------------|

1.git.: D                  G  A
2.git.: D Dsus4 D Dsus4 D  G  A

        La, la, la, la, la, la, la, la, ... 2x


STROFA:
1.git.: D                  G  A
2.git.: D Dsus4 D Dsus4 D  G  A

        I zato sto sam tako mlad, sto sam tako mlad
        I zato sto nemogu s tobom drugacije
        I zato sto nemamo kamo, sto nemamo
        I zato sto nemamo lova za skupe provode

REFREN:
1.git.: D                  G  A
2.git.: D Dsus4 D Dsus4 D  G  A

        Mi plesemo, cijeli dan i noc 4x


(Uvodni riff, strofa i refren)

SOLO:
1.git.:     D              G     A     D              G     A
2.git.: e|---------5--7b-7-5--7b-7------------5--7b-7-5--7b-7----|
        B|--5--5h7-----------------5---5--5h7-----------------5--|
        D|-------------------------------------------------------|
        G|-------------------------------------------------------|
        A|-------------------------------------------------------|
        E|-------------------------------------------------------|

1.git.:     D                           G      A
2.git.: e|----------------------------------------|
        B|--5-3-2-3--5-3--------2-3b-3b---3b-3----|
        D|---------------2--2h4---------4------2--|
        G|----------------------------------------|
        A|----------------------------------------|
        E|----------------------------------------|

1.git.:     D                              G    A
2.git.: e|-----------------------------------------|
        B|--5--5-3-2-3--5-3--------2-3b-3b---3b-3--|
        D|------------------2--2h4---------4-------|
        G|-----------------------------------------|
        A|-----------------------------------------|
        E|-----------------------------------------|

[ Tab from: http://www.guitartabs.cc/tabs/p/prljavo_kazali_te/mi_pijemo_tab.html ]
1.git.:     D                         G      A
2.git.: e|-----------------------------------12-10-9-10-12-10-----|
        B|--10--10-12b-12--10-12b-12--10--10------------------10--|
        D|--------------------------------------------------------|
        G|--------------------------------------------------------|
        A|--------------------------------------------------------|
        E|--------------------------------------------------------|

1.git.:     D                     G      A
2.git.: e|-------------------------------12-10-9-10-12--|
        B|--10-12b-12--10-12b-12--10--10----------------|
        D|----------------------------------------------|
        G|----------------------------------------------|
        A|----------------------------------------------|
        E|----------------------------------------------|

1.git.:     D                           G      A
2.git.: e|----------------------------------------|
        B|--5-3-2-3--5-3--------2-3b-3b---3b-3----|
        D|---------------2--2h4---------4------2--|
        G|----------------------------------------|
        A|----------------------------------------|
        E|----------------------------------------|

1.git.:     D                              G    A
2.git.: e|-----------------------------------------|
        B|--5--5-3-2-3--5-3--------2-3b-3b---3b-3--|
        D|------------------2--2h4---------4-------|
        G|-----------------------------------------|
        A|-----------------------------------------|
        E|-----------------------------------------|


1.git.: e|--9-7-5--9-7-5--5-7-----10-9-7--10-9-7--5-7--|
        B|---------------------------------------------|
        D|---------------------------------------------|
        G|---------------------------------------------|
        A|---------------------------------------------|
        E|---------------------------------------------|

2.git.: e|--9-7-5--9-7-5--5h6-7---10-9-7--10-9-7--5h6-7--|
        B|-----------------------------------------------|
        D|-----------------------------------------------|
        G|-----------------------------------------------|
        A|-----------------------------------------------|
        E|-----------------------------------------------|


1.git.: e|--9-7-5--9-7-5--5-7---10-9-7--10-9-7--|
        B|--------------------------------------|
        D|--------------------------------------|
        G|--------------------------------------|
        A|--------------------------------------|
        E|--------------------------------------|

2.git.: e|--9-7-5--9-7-5--5h6-7---10-9-7--10-9-7--|
        B|----------------------------------------|
        D|----------------------------------------|
        G|----------------------------------------|
        A|----------------------------------------|
        E|----------------------------------------|


(STROFA)
 La, la, la, la, la, la, ...

(REFREN)

SOLO 2:
1.git.:     D                           G      A
2.git.: e|----------------------------------------|
        B|--5-3-2-3--5-3--------2-3b-3b---3b-3----|
        D|---------------2--2h4---------4------2--| 4x
        G|----------------------------------------|
        A|----------------------------------------|
        E|----------------------------------------|

(REFREN do kraja)
Comments