Prisoners Of Hatred - Missing Pages Chords & Tabs

 

Missing Pages Chords & Tabs

Prisoners Of Hatred Chords & Tabs

Version: 1 Type: Tab 0 ratings
1 star 2 stars 3 stars 4 stars 5 stars
comments

Missing Pages Tab

   
Band: Prisoners of Hatred
Song: Missing Pages
Album: Unending Sorrow
Tuning: Drop D
Tabbed By: leonard trinidad
Email: magandanglalake666@yahoo.com

tuning = Drop D (D,A,D,G,B,E)


intro/guitar 1
E|-------------------------------------------||
B|-------------------------------------------||
G|-------------------------------------------||
D|-10-10-10-10-9-9-9-9-10-10-10-10-9-9-9-9---||
A|-7--7--7--7--7-7-7-7-7--7--7--7--7-7-7-7---||
D|-7--7--7--7--7-7-7-7-7--7--7--7--7-7-7-7---||



E|--------------------------------------------------||
B|--------------------------------------------------||
G|--------------------------------------------------||
D|-14-14-14-14-12-12-12-12-14-14-14-14-12-12-12-12--||
A|-10-10-10-10-10-10-10-10-10-10-10-10-10-10-10-10--||
D|-10-10-10-10-10-10-10-10-10-10-10-10-10-10-10-10--||

E|-------------------------------------------||
B|-------------------------------------------||
G|-------------------------------------------||
D|-10-10-10-10-9-9-9-9-10-10-10-10-9-9-9-9---||
A|-7--7--7--7--7-7-7-7-7--7--7--7--7-7-7-7---||
D|-7--7--7--7--7-7-7-7-7--7--7--7--7-7-7-7---||



E|--------------------------------------------------||
B|--------------------------------------------------||
G|--------------------------------------------------||
D|-14-14-14-14-12-12-12-12-14-14-14-14-12-12-12-12--||
A|-10-10-10-10-10-10-10-10-10-10-10-10-10-10-10-10--||
D|-10-10-10-10-10-10-10-10-10-10-10-10-10-10-10-10--||


verse 1 /guitar 1
E|-------------------------------------------||
B|-------------------------------------------||
G|-------------------------------------------||
D|-10-10-10-10-9-9-9-9-10-10-10-10-9-9-9-9---||
A|-7--7--7--7--7-7-7-7-7--7--7--7--7-7-7-7---||
D|-7--7--7--7--7-7-7-7-7--7--7--7--7-7-7-7---||



E|--------------------------------------------------||
B|--------------------------------------------------||
G|--------------------------------------------------||
D|-14-14-14-14-12-12-12-12-14-14-14-14-12-12-12-12--||
A|-10-10-10-10-10-10-10-10-10-10-10-10-10-10-10-10--||
D|-10-10-10-10-10-10-10-10-10-10-10-10-10-10-10-10--||

E|-------------------------------------------||
B|-------------------------------------------||
G|-------------------------------------------||
D|-10-10-10-10-9-9-9-9-10-10-10-10-9-9-9-9---||
A|-7--7--7--7--7-7-7-7-7--7--7--7--7-7-7-7---||
D|-7--7--7--7--7-7-7-7-7--7--7--7--7-7-7-7---||



E|--------------------------------------------------||
B|--------------------------------------------------||
G|--------------------------------------------------||
D|-14-14-14-14-12-12-12-12-14-14-14-14-12-12-12-12--||
A|-10-10-10-10-10-10-10-10-10-10-10-10-10-10-10-10--||
D|-10-10-10-10-10-10-10-10-10-10-10-10-10-10-10-10--||


refrain 1
E|-----------------------------------------------------------------||
B|-----------------------------------------------------------------||
G|-----------------------------------------------------------------||
D|-33333333-55555555-55555555-77777777-22222222-33333333-55555555--||
A|-33333333-55555555-33333333-77777777-22222222-33333333-55555555--||
D|-33333333-55555555----------77777777-22222222-33333333-55555555--||

chorus 1

E|------------------------------------------||
B|------------------------------------------||
G|------------------------------------------||
D|-77777777-33333333-55555555-55555555------||
A|-77777777-33333333-33333333-55555555------||
D|-77777777-33333333----------55555555------||

E|------------------------------------------||
B|------------------------------------------||
G|------------------------------------------||
D|-77777777-33333333-55555555-55555555------||
A|-77777777-33333333-33333333-55555555------||
D|-77777777-33333333----------55555555------||


verse 2 /guitar 1
E|-------------------------------------------||
B|-------------------------------------------||
G|-------------------------------------------||
D|-10-10-10-10-9-9-9-9-10-10-10-10-9-9-9-9---||
A|-7--7--7--7--7-7-7-7-7--7--7--7--7-7-7-7---||
D|-7--7--7--7--7-7-7-7-7--7--7--7--7-7-7-7---||



E|--------------------------------------------------||
B|--------------------------------------------------||
G|--------------------------------------------------||
D|-14-14-14-14-12-12-12-12-14-14-14-14-12-12-12-12--||
A|-10-10-10-10-10-10-10-10-10-10-10-10-10-10-10-10--||
D|-10-10-10-10-10-10-10-10-10-10-10-10-10-10-10-10--||

E|-------------------------------------------||
B|-------------------------------------------||
G|-------------------------------------------||
D|-10-10-10-10-9-9-9-9-10-10-10-10-9-9-9-9---||
A|-7--7--7--7--7-7-7-7-7--7--7--7--7-7-7-7---||
D|-7--7--7--7--7-7-7-7-7--7--7--7--7-7-7-7---||



E|--------------------------------------------------||
B|--------------------------------------------------||
G|--------------------------------------------------||
D|-14-14-14-14-12-12-12-12-14-14-14-14-12-12-12-12--||
A|-10-10-10-10-10-10-10-10-10-10-10-10-10-10-10-10--||
D|-10-10-10-10-10-10-10-10-10-10-10-10-10-10-10-10--||

[ Tab from: http://www.guitartabs.cc/tabs/p/prisoners_of_hatred/missing_pages_tab.html ]
refrain 2
E|-----------------------------------------------------------------||
B|-----------------------------------------------------------------||
G|-----------------------------------------------------------------||
D|-33333333-55555555-55555555-77777777-22222222-33333333-55555555--||
A|-33333333-55555555-33333333-77777777-22222222-33333333-55555555--||
D|-33333333-55555555----------77777777-22222222-33333333-55555555--||

chorus 2

E|------------------------------------------||
B|------------------------------------------||
G|------------------------------------------||
D|-77777777-33333333-55555555-55555555------||
A|-77777777-33333333-33333333-55555555------||
D|-77777777-33333333----------55555555------||

E|------------------------------------------||
B|------------------------------------------||
G|------------------------------------------||
D|-77777777-33333333-55555555-55555555------||
A|-77777777-33333333-33333333-55555555------||
D|-77777777-33333333----------55555555------||


rhythm on solo

E|------------------------------------------||
B|------------------------------------------||
G|------------------------------------------||
D|-77777777-33333333-55555555-55555555------||
A|-77777777-33333333-33333333-55555555------||
D|-77777777-33333333----------55555555------||

E|------------------------------------------||
B|------------------------------------------||
G|------------------------------------------||
D|-77777777-33333333-55555555-55555555------||
A|-77777777-33333333-33333333-55555555------||
D|-77777777-33333333----------55555555------||

E|------------------------------------------||
B|------------------------------------------||
G|------------------------------------------||
D|-77777777-33333333-55555555-55555555------||
A|-77777777-33333333-33333333-55555555------||
D|-77777777-33333333----------55555555------||

E|------------------------------------------||
B|------------------------------------------||
G|------------------------------------------||
D|-77777777-33333333-55555555-55555555------||
A|-77777777-33333333-33333333-55555555------||
D|-77777777-33333333----------55555555------||

bridge
E|------------------------------------------||
B|------------------------------------------||
G|------------------------------------------||
D|-3----5----5----7----2----3----55555555---||
A|-3----5----3----7----2----3----55555555---||
D|-3----5---------7----2----3----55555555---||
PM-                              ++++++++
plam mute


chorus 3

E|------------------------------------------||
B|------------------------------------------||
G|------------------------------------------||
D|-77777777-33333333-55555555-55555555------||
A|-77777777-33333333-33333333-55555555------||
D|-77777777-33333333----------55555555------||

E|------------------------------------------||
B|------------------------------------------||
G|------------------------------------------||
D|-77777777-33333333-55555555-55555555------||
A|-77777777-33333333-33333333-55555555------||
D|-77777777-33333333----------55555555------||

E|------------------------------------------||
B|------------------------------------------||
G|------------------------------------------||
D|-77777777-33333333-55555555-55555555------||
A|-77777777-33333333-33333333-55555555------||
D|-77777777-33333333----------55555555------||

E|------------------------------------------||
B|------------------------------------------||
G|------------------------------------------||
D|-77777777-33333333-55555555-55555555------||
A|-77777777-33333333-33333333-55555555------||
D|-77777777-33333333----------55555555------||

outro

intro/guitar 1
E|-------------------------------------------||
B|-------------------------------------------||
G|-------------------------------------------||
D|-10-10-10-10-9-9-9-9-10-10-10-10-9-9-9-9---||
A|-7--7--7--7--7-7-7-7-7--7--7--7--7-7-7-7---||
D|-7--7--7--7--7-7-7-7-7--7--7--7--7-7-7-7---||



E|--------------------------------------------------||
B|--------------------------------------------------||
G|--------------------------------------------------||
D|-14-14-14-14-12-12-12-12-14-14-14-14-12-12-12-12--||
A|-10-10-10-10-10-10-10-10-10-10-10-10-10-10-10-10--||
D|-10-10-10-10-10-10-10-10-10-10-10-10-10-10-10-10--||

E|-------------------------------------------||
B|-------------------------------------------||
G|-------------------------------------------||
D|-10-10-10-10-9-9-9-9-10-10-10-10-9-9-9-9---||
A|-7--7--7--7--7-7-7-7-7--7--7--7--7-7-7-7---||
D|-7--7--7--7--7-7-7-7-7--7--7--7--7-7-7-7---||



E|--------------------------------------------------||
B|--------------------------------------------------||
G|--------------------------------------------------||
D|-14-14-14-14-12-12-12-12-14-14-14-14-12-12-12-12--||
A|-10-10-10-10-10-10-10-10-10-10-10-10-10-10-10-10--||
D|-10-10-10-10-10-10-10-10-10-10-10-10-10-10-10-10--||


salamat poh sa mga sumosuporta sa opm mabuhay tayong lahat
e-mail me at
magandanglalake666@yahoo.com
binabati ko lahat ng mga banda sa nueva ecija...
Comments