Prisoners Of Hatred - Last Supper Chords & Tabs

 

Last Supper Chords & Tabs

Prisoners Of Hatred Chords & Tabs

Version: 1 Type: Tab 0 ratings
1 star 2 stars 3 stars 4 stars 5 stars
comments

Last Supper Tab

   
Band: Prisoners of Hatred
Song: The Last Supper
Album: Deicide
Tuning: Drop D
Tabbed By: Mikel Rey Carlos
Email: mikel_rey@yahoo.com

tuning = Drop D (D,A,D,G,B,E)


intro
E|----------------------------------------------------------------------||
B|----------------------------------------------------------------------||
G|----------------------------------------------------------------------||
D|----------------------------------------------------------------------||
A|--------3s5-3-------------3s5--------------3s5-3-------------3s5------||
D|-0-3-5--------5-3--0-5-6------5-3--0-5-3---------5-3--0-5-6------5-3--||

E|----------------------------------------------------------------------||
B|----------------------------------------------------------------------||
G|----------------------------------------------------------------------||
D|----------------------------------------------------------------------||
A|--------3s5-3-------------3s5--------------3s5-3-------------3s5------||
D|-0-3-5--------5-3--0-5-6------5-3--0-5-3---------5-3--0-5-6------5-3--||

E|----------------------------------------------------------------------||
B|----------------------------------------------------------------------||
G|----------------------------------------------------------------------||
D|-0-3-5-------------0-5-6------------0-3-5-------------0-5-6-----------||
A|-0-3-5--3s5-3------0-5-6--3s5-------0-3-5--3s5-3------0-5-6--3s5------||
D|-0-3-5--------5-3--0-5-6------5-3---0-3-5--------5-3--0-5-6------5-3--||
[ Tab from: http://www.guitartabs.cc/tabs/p/prisoners_of_hatred/last_supper_tab.html ]
E|----------------------------------------------------------------------||
B|----------------------------------------------------------------------||
G|----------------------------------------------------------------------||
D|-0-3-5-------------0-5-6------------0-3-5-------------0-5-6-----------||
A|-0-3-5--3s5-3------0-5-6--3s5-------0-3-5--3s5-3------0-5-6--3s5------||
D|-0-3-5--------5-3--0-5-6------5-3---0-3-5--------5-3--0-5-6------5-3--||

verse
E|----------------------------------------------------------------------||
B|----------------------------------------------------------------------||
G|----------------------------------------------------------------------||
D|----------------------------------------------------------------------||
A|--------3s5-3-------------3s5--------------3s5-3-------------3s5------||
D|-0-3-5--------5-3--0-5-6------5-3--0-5-3---------5-3--0-5-6------5-3--||

E|----------------------------------------------------------------------||
B|----------------------------------------------------------------------||
G|----------------------------------------------------------------------||
D|----------------------------------------------------------------------||
A|--------3s5-3-------------3s5--------------3s5-3-------------3s5------||
D|-0-3-5--------5-3--0-5-6------5-3--0-5-3---------5-3--0-5-6------5-3--||


chorus
E|----------------------------------------------------------------------||
B|----------------------------------------------------------------------||
G|----------------------------------------------------------------------||
D|-0-3-5-------------0-5-6------------0-3-5-------------0-5-6-----------||
A|-0-3-5--3s5-3------0-5-6--3s5-------0-3-5--3s5-3------0-5-6--3s5------||
D|-0-3-5--------5-3--0-5-6------5-3---0-3-5--------5-3--0-5-6------5-3--||

E|----------------------------------------------------------------------||
B|----------------------------------------------------------------------||
G|----------------------------------------------------------------------||
D|-0-3-5-------------0-5-6------------0-3-5-------------0-5-6-----------||
A|-0-3-5--3s5-3------0-5-6--3s5-------0-3-5--3s5-3------0-5-6--3s5------||
D|-0-3-5--------5-3--0-5-6------5-3---0-3-5--------5-3--0-5-6------5-3--||
Comments