Prisoners Of Hatred - El Filibusterismo Chords & Tabs

 

El Filibusterismo Chords & Tabs

Prisoners Of Hatred Chords & Tabs

Version: 1 Type: Tab 0 ratings
1 star 2 stars 3 stars 4 stars 5 stars
comments

El Filibusterismo Tab

   
#----------------------------------PLEASE NOTE---------------------------------#
#This file is the author's own work and represents their interpretation of the #
#song. You may only use this file for private study, scholarship, or research. #
#------------------------------------------------------------------------------##
#

#----------------------------------PLEASE NOTE---------------------------------#
#This file is the author's own work and represents their interpretation of the #
#song. You may only use this file for private study, scholarship, or research. #
#------------------------------------------------------------------------------#


bago ang lahat add nyo ako sa friendster pls.
leah_lopez69@yahoo.com



Band: Prisoners of Hatred
Song: El Filibusterismo
Album: Sacred Seyer
Tuning: Drop C
Tabbed By: Ms.Leah Lopez
Email: leah_lopez69@yahoo.com

tuning = Drop C (C,G,C,F,A,D)


intro
D|-----------------------------------||
A|-----------------------------------||
F|-----------------------------------||
C|-0-1-0-1-0-1-0-1-0-1-0-1-0-1-0-1---||
G|-0-1-0-1-0-1-0-1-0-1-0-1-0-1-0-1---||
C|-0-1-0-1-0-1-0-1-0-1-0-1-0-1-0-1---||

D|-----------------------------------------------------------||
A|-----------------------------------------------------------||
F|-----------------------------------------------------------||
C|-5-0-3-5-0-6-5-0-3-5-0-5h6p5-0-3-5-0-6-5-0-3-5-0-5h6p5-----||
G|-5-0-3-5-0-6-5-0-3-5-0-5h6p5-0-3-5-0-6-5-0-3-5-0-5h6p5-----||
C|-5-0-3-5-0-6-5-0-3-5-0-5h6p5-0-3-5-0-6-5-0-3-5-0-5h6p5-----||

D|-----------------------------------------------------------||
A|-----------------------------------------------------------||
F|-----------------------------------------------------------||
C|-5-0-3-5-0-6-5-0-3-5-0-5h6p5-0-3-5-0-6-5-0-3-5-0-5h6p5-----||
G|-5-0-3-5-0-6-5-0-3-5-0-5h6p5-0-3-5-0-6-5-0-3-5-0-5h6p5-----||
C|-5-0-3-5-0-6-5-0-3-5-0-5h6p5-0-3-5-0-6-5-0-3-5-0-5h6p5-----||


D|---------------------------------------------------------------------||
A|---------------------------------------------------------------------||
F|---------------------------------------------------------------------||
C|-5-5-5-------5-6--5-5-5-------5-6-5-5-5-------5-6--5-5-5-------5-6---||
G|-5-5-5---5-6------5-5-5---5-6-----5-5-5---5-6------5-5-5---5-6-------||
C|-5-5-5-6----------5-5-5-6---------5-5-5-6----------5-5-5-6-----------||

[ Tab from: http://www.guitartabs.cc/tabs/p/prisoners_of_hatred/el_filibusterismo_tab.html ]
verse
D|-----------------------------------------------------------||
A|-----------------------------------------------------------||
F|-----------------------------------------------------------||
C|-5-0-3-5-0-6-5-0-3-5-0-5h6p5-0-3-5-0-6-5-0-3-5-0-5h6p5-----||
G|-5-0-3-5-0-6-5-0-3-5-0-5h6p5-0-3-5-0-6-5-0-3-5-0-5h6p5-----||
C|-5-0-3-5-0-6-5-0-3-5-0-5h6p5-0-3-5-0-6-5-0-3-5-0-5h6p5-----||

D|-----------------------------------------------------------||
A|-----------------------------------------------------------||
F|-----------------------------------------------------------||
C|-5-0-3-5-0-6-5-0-3-5-0-5h6p5-0-3-5-0-6-5-0-3-5-0-5h6p5-----||
G|-5-0-3-5-0-6-5-0-3-5-0-5h6p5-0-3-5-0-6-5-0-3-5-0-5h6p5-----||
C|-5-0-3-5-0-6-5-0-3-5-0-5h6p5-0-3-5-0-6-5-0-3-5-0-5h6p5-----||


D|-------------------||
A|-------------------||
F|-------------------||
C|-5-6-5-6-5-6-5-6---||
G|-5-6-5-6-5-6-5-6---||
C|-5-6-5-6-5-6-5-6---||

chorus
D|------------------------------------------------------||
A|------------------------------------------------------||
F|------------------------------------------------------||
C|-1-1-1-3-1-3-0-0-0-3-0-5-1-1-1-3-1-3-0-0-0-3-0-5------||
G|-1-1-1-3-1-3-0-0-0-3-0-5-1-1-1-3-1-3-0-0-0-3-0-5------||
C|-1-1-1-3-1-3-0-0-0-3-0-5-1-1-1-3-1-3-0-0-0-3-0-5------||

D|------------------------------------------------------||
A|------------------------------------------------------||
F|------------------------------------------------------||
C|-1-1-1-3-1-3-0-0-0-3-0-5-1-1-1-3-1-3-0-0-0-3-0-5------||
G|-1-1-1-3-1-3-0-0-0-3-0-5-1-1-1-3-1-3-0-0-0-3-0-5------||
C|-1-1-1-3-1-3-0-0-0-3-0-5-1-1-1-3-1-3-0-0-0-3-0-5------||

bridge

D|------------------------||
A|------------------------||
F|---------------------7--||
C|-------------------6----||
G|-----------------5------||
C|-5-0-5-6-0-5-0-5--------||


D|------------------------||
A|------------------------||
F|---------------------8--||
C|-------------------7----||
G|-----------------6------||
C|-5-0-5-6-0-5-0-6--------||

D|------------------------||
A|------------------------||
F|---------------------7--||
C|-------------------6----||
G|-----------------5------||
C|-5-0-5-6-0-5-0-5--------||


D|------------------------||
A|------------------------||
F|---------------------8--||
C|-------------------7----||
G|-----------------6------||
C|-5-0-5-6-0-5-0-6--------||

love ko talaga ung kantang ito.
pls. naman paki add ako...
leah_lopez69@yahoo.com
ang pogi talaga ng prisoners of hatred

Comments