Prisoners Of Hatred - Deicide Chords & Tabs

 

Deicide Chords & Tabs

Prisoners Of Hatred Chords & Tabs

Version: 1 Type: Tab 0 ratings
1 star 2 stars 3 stars 4 stars 5 stars
comments

Deicide Tab

   
Band: Prisoners of Hatred
Song: Deicide
Album: Deicide
Tuning: Drop D
Tabbed By: Mikel Rey Carlos
Email: mikel_rey@yahoo.com

tuning = Drop D (D,A,D,G,B,E)


intro/ guitar 1
E|--------------------------------------------------------------------------||
B|--------------------------------------------------------------------------||
G|--------------------------------------------------------------------------||
D|-8----8----10--0-----8----8----10--0-----8----8----10--0----8----8h10--7--||
A|---10---10--------10---10---10--------10---10---10-------10---10----------||
D|--------------------------------------------------------------------------||

E|--------------------------------------------------------------------------||
B|--------------------------------------------------------------------------||
G|--------------------------------------------------------------------------||
D|-8----8----10--0-----8----8----10--0-----8----8----10--0----8----8h10--7--||
A|---10---10--------10---10---10--------10---10---10-------10---10----------||
D|--------------------------------------------------------------------------||

intro / distortion part
guitar 1
E|--------------------------------------------------------------------------||
B|--------------------------------------------------------------------------||
G|--------------------------------------------------------------------------||
D|-8----8----10--0-----8----8----10--0-----8----8----10--0----8----8h10--7--||
A|---10---10--------10---10---10--------10---10---10-------10---10----------||
D|--------------------------------------------------------------------------||


intro / distortion part
guitar 2
E|----------------------------------------||
B|----------------------------------------||
G|----------------------------------------||
D|-55555555-33333333-11111111-33333333----||
A|-55555555-33333333-11111111-33333333----||
D|-55555555-33333333-11111111-33333333----||

intro 2
guitar 1
E|----------------------------------------------------||
B|----------------------------------------------------||
G|----------------------------------------------------||
D|-5-5-8-8-7-5--3-3-7-7-5-3--1-1-5-5-3-1--3-3-3h5-2---||
A|-5-5----------3-3----------1-1----------3-3---------||
D|-5-5----------3-3----------1-1----------3-3---------||

intro 2
guitar 2
E|----------------------------------------------------||
B|----------------------------------------------------||
G|--15-15-14-12--14-14-12-10--12-12-10--8--10s12-10---||
D|----------------------------------------------------||
A|--13-13-12-10--12-12-10--8--10-10--8--6---8s10--8---||
D|----------------------------------------------------||


verse 1
E|--------------------------------------------------------------------------||
B|--------------------------------------------------------------------------||
G|--------------------------------------------------------------------------||
D|-8----8----10--0-----8----8----10--0-----8----8----10--0----8----8h10--7--||
A|---10---10--------10---10---10--------10---10---10-------10---10----------||
D|--------------------------------------------------------------------------||

E|--------------------------------------------------------------------------||
B|--------------------------------------------------------------------------||
G|--------------------------------------------------------------------------||
D|-8----8----10--0-----8----8----10--0-----8----8----10--0----8----8h10--7--||
A|---10---10--------10---10---10--------10---10---10-------10---10----------||
D|--------------------------------------------------------------------------||


bridge 
guitar 1
E|--------------------------------------------------||
B|--------------------------------------------------||
G|--------10---------10---------10----------10------||
D|-8----8------8----8----8----8-----8----8----------||
A|---10----------10--------10---------10------------||
D|--------------------------------------------------||
[ Tab from: http://www.guitartabs.cc/tabs/p/prisoners_of_hatred/deicide_tab.html ]
E|--------------------------------------------------||
B|--------------------------------------------------||
G|--------10---------10---------10----------10------||
D|-8----8------8----8----8----8-----8----8----------||
A|---10----------10--------10---------10------------||
D|--------------------------------------------------||

refrain 
guitar 1
E|--------------------------------------------------------------------------||
B|--------------------------------------------------------------------------||
G|--------------------------------------------------------------------------||
D|-8----8----10--0-----8----8----10--0-----8----8----10--0----8----8h10--7--||
A|---10---10--------10---10---10--------10---10---10-------10---10----------||
D|--------------------------------------------------------------------------||

E|--------------------------------------------------------------------------||
B|--------------------------------------------------------------------------||
G|--------------------------------------------------------------------------||
D|-8----8----10--0-----8----8----10--0-----8----8----10--0----8----8h10--7--||
A|---10---10--------10---10---10--------10---10---10-------10---10----------||
D|--------------------------------------------------------------------------||

refrain
guitar 2
E|----------------------------------------||
B|----------------------------------------||
G|----------------------------------------||
D|-55555555-33333333-11111111-33333333----||
A|-55555555-33333333-11111111-33333333----||
D|-55555555-33333333-11111111-33333333----||

E|----------------------------------------||
B|----------------------------------------||
G|----------------------------------------||
D|-55555555-33333333-11111111-33333333----||
A|-55555555-33333333-11111111-33333333----||
D|-55555555-33333333-11111111-33333333----||

chorus
E|----------------------------------------||
B|----------------------------------------||
G|----------------------------------------||
D|-55555555-33333333-11111111-33333333----||
A|-55555555-33333333-11111111-33333333----||
D|-55555555-33333333-11111111-33333333----||

E|----------------------------------------||
B|----------------------------------------||
G|----------------------------------------||
D|-55555555-33333333-11111111-33333333----||
A|-55555555-33333333-11111111-33333333----||
D|-55555555-33333333-11111111-33333333----||


repeat intro 2
repeat verse
repeat bridge
repeat refrain
repeat chorus

interlude
E|---------------------------------------||
B|---------------------------------------||
G|---------------------------------------||
D|-5-0-1-0-3-1-0-1--5-0-1-0-3-1-0-1------||
A|-5----------------5--------------------||
D|-5----------------5--------------------||


E|---------------------------------------||
B|---------------------------------------||
G|---------------------------------------||
D|-5-0-1-0-3-1-0-1--5-0-1-0-3-1-0-1------||
A|-5----------------5--------------------||
D|-5----------------5--------------------||

E|--------------------------------------------------------------------||
B|--------------------------------------------------------------------||
G|--------------------------------------------------------------------||
D|-5-0-1-0-3-1-0-1--5-0-1-0-3-1-0--5-0-1-0-3-1-0-1--5-0-1-0-3-1-0-1---||
A|-5-0-1-0-3-1-0-1--5-0-1-0-3-1-0--5-0-1-0-3-1-0-1--5-0-1-0-3-1-0-1---||
D|-5-0-1-0-3-1-0-1--5-0-1-0-3-1-0--5-0-1-0-3-1-0-1--5-0-1-0-3-1-0-1---||

E|--------------------------------------------------------------------||
B|--------------------------------------------------------------------||
G|--------------------------------------------------------------------||
D|-5-0-1-0-3-1-0-1--5-0-1-0-3-1-0--5-0-1-0-3-1-0-1--5-0-1-0-3-1-0-1---||
A|-5-0-1-0-3-1-0-1--5-0-1-0-3-1-0--5-0-1-0-3-1-0-1--5-0-1-0-3-1-0-1---||
D|-5-0-1-0-3-1-0-1--5-0-1-0-3-1-0--5-0-1-0-3-1-0-1--5-0-1-0-3-1-0-1---||

E|-------------||
B|-------------||
G|-------------||
D|-3-----------||
A|-3-let-ring--||
D|-3-----------||

repeat chorus 2x

finish 
one of the best song of prisoners of h8red
ang ganda ng live version.
thank q nga pala kay francis,
sa binigay mong CD ng Prisoners of Hatred
Thanks...
Comments