Prine John - In Spite Of Ourselves Chords & Tabs

 

In Spite Of Ourselves Chords & Tabs

Prine John Chords & Tabs

Version: 1 Type: Tab 0 ratings
1 star 2 stars 3 stars 4 stars 5 stars
comments

In Spite Of Ourselves Tab

##################################################################################
# This file is the author's own work and represents their interpretation of the  #
# song. You may only use this file for private study, scholarship, or research.  #
##################################################################################

In Spite of Ourselves  John Prine with Iris Dement duet
Tabbed by Jeff of jstachowiak@sunbeltrentals.com 
Comments welcome
[ Tab from: http://www.guitartabs.cc/tabs/p/prine_john/in_spite_of_ourselves_tab.html ]
Intro:  
E-3---0---0-------------------0--|-3---0---0-------------------0--|
B-------------3---1---1---3------|-------------3---1---1---3------|
G--------------------------------|--------------------------------|
D--------------------------------|--------------------------------|
A--------------------------------|--------------------------------|
E--------------------------------|--------------------------------|

E-------------------------0--|-3---0--0--------------0--|
B----1--1--1--1--1--1--3-----|-----------3--1--1--3-----|
G-2--------------------------|--------------------------|
D----------------------------|--------------------------|
A----------------------------|--------------------------|
E----------------------------|--------------------------|

E-0-----------0-----------3--3--3--3--3-------|
B----3--0--------3--0--------------------0--1-|
G----------0-----------0----------------------|
D---------------------------------------------|
A---------------------------------------------|
E---------------------------------------------|
Comments