Prince - Purple Rain Chords & Tabs

 

Purple Rain Chords & Tabs

Prince Chords & Tabs

Version: 3 Type: Tab 0 ratings
1 star 2 stars 3 stars 4 stars 5 stars
comments

Purple Rain Tab

Prince
Purple Rain
[ Tab from: http://www.guitartabs.cc/tabs/p/prince/purple_rain_tab_ver_3.html ]
Verse
e||--1-------------------------------1----x------6--------------||
B||--1---------------1---------------1----x------8--------------||
G||--3----3----------3---------------2----x------10*------------||
D||--3------3--------3----3----------5----x------8--------------||
A||--1--1-----1-0----1------1--------3----x---6-----------------||
E||---------------3--3--3-----3-0-1--1----x---------------------||
                                          *tenth fret 
Chorus
e||---1-----------------------------(1)---------------------||
B||---1-----------------------------(1)---------------------||
G||---2-----------------------------(3)---------------------||
D||---5-----------------------------(3)---------------------||
A||---3-----------------------------(1)---------------------||
E||---1~~~~~~-----------------------------------------------||
Only want to see you in the purple rain(stum once and stop strings)


e||----------------------6-------------------------1-----------||
B||--no------------------8-------------------------1-----------||
G||---music--------------10------------------------3-----------||
D||----------------------8-------------------------3-----------||
A||----------------------6~~~~~--------------------1~~~~~~-----||
E||------------------------------------------------------------||
   Purple rain, purple rain, purple rain, purple rain


e||-----------1-----------------------1-----------------------1---||
B||-----------1-----------------------1-----------------------1---||
G||-----------3-----------------------2-----------------------3---||
D||---3-------3-----------------------5-----------------------3---||
A||-----1-----1-----------------------3-----------------------1---||
E||-------3---3-----------------------1---------------------------||
              Purple rain, purple rain, only want....purple rain

Comments