Prince - Purple Rain Chords & Tabs

 

Purple Rain Chords & Tabs

Prince Chords & Tabs

Version: 1 Type: Tab 0 ratings
1 star 2 stars 3 stars 4 stars 5 stars
comments

Purple Rain Tab

   
#----------------------------------PLEASE NOTE---------------------------------#
#This file is the author's own work and represents their interpretation of the #
#song. You may only use this file for private study, scholarship, or research. #
#------------------------------------------------------------------------------#
Sender: s_weidn@irau32 (Harald Weidner)

PRINCE: Purple Rain
===================

Used chords are:

C major [C]

|---|---|---|---|---
|-1-|---|---|---|---
|---|---|---|---|---
|---|-2-|---|---|---
|---|---|-3-|---|---
|---|---|---|---|---

A minor 7 [Am7]

|---|---|---|---|---
|-1-|---|---|---|---
|---|---|---|---|---
|---|-2-|---|---|---
|---|---|---|---|---
|---|---|---|---|---

G major [G]

|---|---|-4-|---|---
|---|---|---|---|---
|---|---|---|---|---
|---|---|---|---|---
|---|-1-|---|---|---
|---|---|-2-|---|---

F major [F]

|-1-|---|---|---|---          |-1-|---|---|---|---
|-1-|---|---|---|---          |-1-|---|---|---|---
|-1-|-2-|---|---|---    or    |---|-2-|---|---|---
|-1-|---|-4-|---|---          |---|---|-4-|---|---
|-1-|---|-3-|---|---          |---|---|-3-|---|---
|-1-|---|---|---|---          |---|---|---|---|--- x

F major 4 [F4]

|-1-|---|---|---|---          |-1-|---|---|---|---
|-1-|---|---|---|---          |-1-|---|---|---|---
|-1-|---|-4-|---|---    or    |---|---|-4-|---|---
|-1-|---|-3-|---|---          |---|---|-3-|---|---
|-1-|---|---|---|--- x        |---|---|---|---|--- x
|-1-|---|---|---|---          |---|---|---|---|--- x

Intro: C, C, Am7, Am7, G, G, F, F






A simple playing technique:

 C                 Am7               G
|-------0|-----0--|-------0|-----0--|-------3|-----3--|
|1---1--1|1-1--11-|1---1--1|1-1--11-|-------0|-----0--|
|0---0---|0-0---0-|0---0---|0-0---0-|0---0---|0-0---0-|
|2---2---|2-2---2-|2---2---|2-2---2-|0---0---|0-0---0-|
|3---3---|3-3---3-|0---0---|0-0---0-|2---2---|2-2---2-|
|--------|--------|--------|--------|3---3---|3-3---3-|

 F              F4 G                          C
|-------1|------0-|---3----|---3----|---3----|--------|--------|
|1---1--1|1-1---11|---0----|---0----|---0----|1-------|--------|
|2---2---|2-2----3|0---0---|0---0---|0---0---|0-------|--------|
|3---3---|3-3----3|0---0---|0---0---|0---0---|2-------|--------|
|3---3---|3-3-----|2---2-2-|2---2-2-|2---2-2-|3-------|--------|
|--------|--------|3---3-3-|3---3-3-|3---3-3-|--------|--------|
                                              |_______________|


A picking pattern
[ Tab from: http://www.guitartabs.cc/tabs/p/prince/purple_rain_tab.html ]
 C        Am7      G        F        F4
|-----0--|-----0--|-----3--|-----1--|-----1--|
|----1-1-|----1-1-|----0-0-|----1-1-|----1-1-|
|---0---0|---0---0|---0---0|---2---2|---3---3|
|--2-----|--2-----|--0-----|--3-----|--3-----|
|3-------|0-------|--------|--------|--------|
|--------|--------|3-------|1-------|1-------|


The original technique used by PRINCE:

You need the following additional chords:

C major 9 [C9]

|---|---|---|---|---
|-1-|---|---|---|---
|---|---|---|---|---
|---|---|---|---|---
|---|---|-3-|---|---
|---|---|---|---|---

A minor 7/4 [Am74]

|---|---|---|---|---
|-1-|---|---|---|---
|---|---|---|---|---
|---|---|---|---|---
|---|---|---|---|---
|---|---|---|---|---

F major 9 [F9]

|-1-|---|---|---|---
|-1-|---|---|---|---
|-1-|---|---|---|---
|-1-|---|-4-|---|---
|-1-|---|-3-|---|---
|-1-|---|---|---|---



 C9                Am74 Am7     Am74 G
|--------|--------|-------0|-----0--|-------3|-----3--|
|1-------|--------|1---1--1|1-1--11-|-------0|-----0--|
|0-------|--------|0---0---|0-0---0-|0---0---|0-0---0-|
|0-------|--------|02--2---|2-2---0-|0---0---|0-0---0-|
|3-------|--------|0---0---|0-0---0-|2---2---|2-2---2-|
|--------|--------|--------|--------|03--3---|3-3---3-|
 |_______________|

 F9       F  F4 F  G                          C
|-------1|---1-1--|-------3|-------3|-------3|--------|
|1------1|1--1111-|-------0|-------0|-------0|1-------|
|0-------|02--2-2-|0---0-0-|0---0-0-|0---0-0-|0-------|
|3-------|3---3-3-|0---0-0-|0---0-0-|0---0-0-|2-------|
|3-------|3---3-3-|2-2-2---|2-2-2---|2-2-2---|3-------|
|--------|--------|3-3-3---|3-3-3---|3-3-3---|--------|


Refrain:

 C        F        F4       F        F        C9
|--------|-------1|-----1--|--------|--------|-------0|-----0--|
|1-------|1---1--1|1-1--11-|1---1---|1---1---|1---1--1|1-1--11-|
|0-------|2---2---|3-3---3-|2---2---|2---2---|0---0---|0-0---0-|
|2-------|3---3---|3-3---3-|3---3---|3---3---|0---0---|0-0---0-|
|3-------|3---3---|--------|3---3---|3---3---|3---3---|3-3---3-|
|--------|--------|--------|--------|--------|--------|--------|

                    {------3x-------}
 Am7                G                           C
|-------0|-----0--||-------3|-----3--||--------|--------|--------|
|1---1--1|1-1--11-||-------0|-----0--||--------|1-------|--------|
|0---0---|0-0---0-||0---0---|0-0---0-||0---0---|0-------|--------|
|2---2---|2-2---2-||0---0---|0-0---0-||0---0---|2-------|--------|
|0---0---|0-0---0-||2---2---|2-2---2-||2---2---|3-------|--------|
|--------|--------||3---3---|3-3---3-||3---3---|--------|--------|
                                                |_______________|

Hint: Prince plays this in B major. If you want to play it together
      with the LP, you should tune your guitar down one step.


Taken from "Rock Ballads" by Peter Bursch.
Comments