Prince - Peach Chords & Tabs

 

Peach Chords & Tabs

Prince Chords & Tabs

Version: 1 Type: Bass Tab 0 ratings
1 star 2 stars 3 stars 4 stars 5 stars
comments

Peach Bass Tab

From: burzlaff@lisisun.univ-lyon1.fr (Max mad)
Newsgroups: alt.music.prince
Date: 20 Mar 1995 17:12:32 GMT

"Peach", by Prince.

Yeah I know, it's a basic R'n'R bass line, but
hey, I only started playing 4 months ago :)
Maybe it'll help another beginner :)

And maybe others will post more interesting Prince btabs :)
	
Enhancements welcome, at burzlaff@lisisun.univ-lyon1.fr

So that's how I play it :

(spoken intro skipped)
[ Tab from: http://www.guitartabs.cc/tabs/p/prince/peach_btab.html ]
Beginning / on "She's a peach"
G --------------------
D --------------------
A -5-3-2-1-0----------
E -----------3-4-5----


G --------------------
D --------------------
A -5---5-5-5-5-5-5---- *4
E --------------------

G --------------------
D --------------------
A --------------------  *2
E -3---3-3-3-3-3-3---- 

G --------------------
D --------------------
A -5---5-5-5-5-5-5----   *2
E --------------------

G --------------------------------------
D --------------------------------------
E -2------------------------------------
A --------------------3-----------------

Max mad


Comments