Prince - Darling Nikki Chords & Tabs

 

Darling Nikki Chords & Tabs

Prince Chords & Tabs

Version: 1 Type: Chords 0 ratings
1 star 2 stars 3 stars 4 stars 5 stars
comments

Darling Nikki Chords

   
Prince - Darling Nikki

Intro

E-----------------------------------------------| R
B-----------------------------------------------| E
G--8--6--4--6--7--4-------8--6--4--6--7--4------| P
D--9--8--6--8--9--5--5----9--8--6--8--9--4--4---| E
A--------------------5----------------------4---| A
E-----------------------------------------------| T

  B                                          G
I knew a girl named Nikki, I guess you could say she was a sex fiend

  E                                B                  F#
I met her in a hotel lobby, Mastur*bating with a maga*zine

         G
She said how'd you like to waste some time,

      F#
and I couldn't resist when I saw little Nikki Grind

E-----------------------------------------------|
B--4--4-4-/-7-4----4-4-4-/-7-4--7-7-7-9---9-9-9-|
G--4--4-4-/-7-4----4-4-4-/-7-4--7-7-7-9---9-9-9-|
D--2--2-2-/-5-2----2-2-2-/-5-2--5-5-5-7---7-7-7-|
A-----------------------------------------------|
E-----------------------------------------------|

E------------------|
B--4--4-4-/-7-4----|
G--4--4-4-/-7-4----|
D--2--2-2-/-5-2----|
A------------------|
E------------------|

B                                    G
She took me to her castle And I just couldn't believe my eyes

E                            B                      F#
She had so many devices Everything that money could buy

G
She said sign your name on the dotted line

F#
The lights went out, and Nikki started to grind
[ Tab from: http://www.guitartabs.cc/tabs/p/prince/darling_nikki_crd.html ]
E-----------------------------------------------|
B--4--4-4-/-7-4----4-4-4-/-7-4--7-7-7-9---9-9-9-|
G--4--4-4-/-7-4----4-4-4-/-7-4--7-7-7-9---9-9-9-|
D--2--2-2-/-5-2----2-2-2-/-5-2--5-5-5-7---7-7-7-|
A-----------------------------------------------|
E-----------------------------------------------|
                                OHHHHHHHHHHHHHH

E------------------|
B--4--4-4-/-7-4----|
G--4--4-4-/-7-4----|
D--2--2-2-/-5-2----|
A------------------|
E------------------|
   NIKKI!

    B                          G
The castle started spinning or maybe it was my brain

E
I can't tell you what she did to me

       B                      F#
but my body will never be the same

G
Her lovin' will kick your behind

F#
Just to show you no mercy


E-----------------------------------------------|
B--4--4-4-/-7-4----4-4-4-/-7-4--7-7-7-9---9-9-9-|
G--4--4-4-/-7-4----4-4-4-/-7-4--7-7-7-9---9-9-9-|
D--2--2-2-/-5-2----2-2-2-/-5-2--5-5-5-7---7-7-7-|
A-----------------------------------------------|
E-----------------------------------------------|
But she'll sho'nuff, sho'nuff show you how to grind

E------------------|
B--4--4-4-/-7-4----|
G--4--4-4-/-7-4----|
D--2--2-2-/-5-2----|
A------------------|
E------------------|

     B                   G
Woke up the next morning Nikki wasn't there

E                                       B                   F#
I looked all over and all I found was a phone number on the stairs

        G
It said thank you for a funky time

F#
Call me up whenever you want to grind

E-----------------------------------------------|
B--4--4-4-/-7-4----4-4-4-/-7-4--7-7-7-9---9-9-9-|
G--4--4-4-/-7-4----4-4-4-/-7-4--7-7-7-9---9-9-9-|
D--2--2-2-/-5-2----2-2-2-/-5-2--5-5-5-7---7-7-7-|
A-----------------------------------------------|
E-----------------------------------------------|
  COme Back Nikki Come Back!!!!!

E------------------|
B--4--4-4-/-7-4----|
G--4--4-4-/-7-4----|
D--2--2-2-/-5-2----|
A------------------|
E------------------|


He who makes a beast of himself gets rid of the pain of being a man.
                                                    - Dr. Johnson
Comments