Primus - Toys Go Winding Down Chords & Tabs

 

Toys Go Winding Down Chords & Tabs

Primus Chords & Tabs

Version: 3 Type: Bass Tab 0 ratings
1 star 2 stars 3 stars 4 stars 5 stars
comments

Toys Go Winding Down Bass Tab

   
Intro is played on a upright bass
G------------
D------------ 5x
A--2-2---3-2-
E------1-----

G--------
D--------
A-2/8888-
E--------

G------------
D------------ 2x
A--2-2---3-2-
E------1-----

This riff is best played by taking your ring finger, middle finger, and fore
finger and hitting your ring first, then middle, then fore in a raking motion..
                        _________________
G-----10-11----------                    |
D-8-8-------8-8-11-8-                    |
A-------------------- 3x                 |
E--------------------                    |
                                         |
                                         | This played 5x before chorus
G-----10-11-----------                   |
D-8-8-------8-11-10---                   |
A---------------------                   |
E--------------------- __________________|


Chorus

G----------------
D----------------
A-----8-9-------- 4x
E-6-6-----6-6-9-6

G-----------------
D-----------------
A-----8-9---------
E-6-6-----9-8-7-6/

                      ___________________
G-----10-11----------                    |
D-8-8-------8-8-11-8-                    |
A-------------------- x3                 |
E--------------------                    |
                                         |
                                         | This played 5x before chorus
G-----10-11-----------                   |
D-8-8-------8-11-10-9-                   |
A---------------------                   |
E--------------------- __________________|

[ Tab from: http://www.guitartabs.cc/tabs/p/primus/toys_go_winding_down_btab_ver_3.html ]
Chorus
                 _____________
G----------------             |
D----------------             |
A-----8-9-------- x3          |
E-6-6-----6-6-9-6             |
                              | Played 3x before Bridge
G-----------------            |
D-----------------            |
A-----8-9---------            |
E-6-6-----9-8-7-6/____________|


Bridge


G---------------------------------------------
D---------------------------------------------
A-1/13-13h15r13-13h15r13-13\9/13-13\9/13-13\1-
E---------------------------------------------

G-----------------------------------------------------------
D-----------------------------------------------------------
A-1-1-------1-1-------1-1/8-9-----999-8-999-8-11-11-10----8-
E-----1-2-------1-2-----------6-6----------------------11---

G--------------------------------------------------------
D--------------------------------------------------------
A-1-1-8-9---1-1-8-9---1-1-8-9---1-1-8-9------------------
E------------------------------------------12\-12\-12\-12\

                 _____________
G----------------             |
D----------------             |
A-----8-9-------- x3          |
E-6-6-----6-6-9-6             |
                              | Played 3x After Bridge
G-----------------            |
D-----------------            |
A-----8-9---------            |
E-6-6-----9-8-7-6/____________|

   
               
G---15-10-11----------                    
D-8-15-------8-8-11-8-                    
A-------------------- x3                 
E--------------------                    
                                         
                                         
G-----10-11-----------
D-8-8-------8-11-10-9-
A---------------------
E---------------------
Comments