Primus - Too Many Puppies Chords & Tabs

 

Too Many Puppies Chords & Tabs

Primus Chords & Tabs

Version: 2 Type: Tab 0 ratings
1 star 2 stars 3 stars 4 stars 5 stars
comments

Too Many Puppies Tab

Band - Primus
Song - Too Many Puppies

NOTE:
b - bend
t - tremolo pick
v~ - bar vibrato
\\ (or) // - tremolo bar
 - repeat

Intro (cleane)
e|-------------------------------------|
B|-------------------------------------|
G|-------------------------------------|
D|-------------------------------------|
A|---3-4-4-4-5-x-x-x-x-x-x-x-x-x-x-x---|
E|-------------------------------------|
  PM...................................|

Rhy. Fig. 1(wah off)
e|---------------------------------|----------------------------------|
B|---------------------------------|----------------------------------|
G|---------------------------------|----------------------------------|
D|--5--5--6--6--7------------------|---5--5--6--6--7------------------|
A|--3--3--4--4--5--4--5--4--5--4---|---3--3--4--4--5--4--5--4--6--4---|
E|-----------------2--3--2--3--2---|------------------2--3--2--4--2---|
                  PM...............|                 PM...............|

3rd time play
e|-------|
B|-------|
G|-------|
D|-------|
A|---7---|
E|---5---|
instead of last F#5

Solo
e|------------------17-------------------------|
B|---------------------------------------------|
G|---15-----15---15-----15--15---15---15--17---|
D|---------------------------------------------|
A|---------------------------------------------|
E|---------------------------------------------|
   let ring....................................|

    hold bend and let ring throughout for measure
e|----------------------18-----------------|
B|-------------15-----------15-------------|
G|---17b------------17------------17--17---|
D|-----------------------------------------|
A|-----------------------------------------|
E|-----------------------------------------|
       1/2

e|-------------------------------------------------|
B|---15-------------------17-----------------------|
G|---15-----15---17--17------17--17--17---17--15---|
D|---15--------------------------------------------|
A|-------------------------------------------------|
E|-------------------------------------------------|

			hold bar bend

e|--------------------------------------|
B|---15---15---15-13-13-11\\------------|
G|---15---15---15-13-13-11\\------0//---|
D|--------------------------------0//---|
A|--------------------------------------|
E|--------------------------------------|

e|----------------16t--------------------16t------------|
B|------------16t--------------------14t-------13--15---|
G|---/13t--------------------/13t-----------------------|
D|------------------------------------------------------|
A|------------------------------------------------------|
E|------------------------------------------------------|

e|----------------------17v~---------------16-----------|
B|--------------15-----(15)------------14---------------|
G|----15b--------------------------13------------13\6---|
D|------------------------------------------------------|
A|------------------------------------------------------|
E|------------------------------------------------------|
    1/2-full
[ Tab from: http://www.guitartabs.cc/tabs/p/primus/too_many_puppies_tab_ver_2.html ]
e|-------------------------------------------------|
B|---/16t-----16v~-----/16t-------16--16--16--17---|
G|---/17t-----17v~-----/17t-------17--17--17-------|
D|-------------------------------------------------|
A|-------------------------------------------------|
E|-------------------------------------------------|

e|--------------------------------------|
B|-------------------17----17---18b-----|
G|------18---(18)v~---------------------|
D|--------------------------------------|
A|--------------------------------------|
E|--------------------------------------|
   grad.

(w/Fill 1)                 (wah off)
e|--------------------------------|
B|---16b------\\------0-----------|
G|--------------------------------|
D|--------------------------------|
A|--------------------------------|
E|--------------------------------|
    full              slack bar

Too many puppies are just like me...
Rhy. Fig. 1 3 times
substitute Fill 1 for 2nd bar of Rhy. Fig. 1

Rhy. Fill 1
e|---------------------------------------|
B|---------------------------------------|
G|---------------------------------------|
D|---5--5--6--6--7-----------------------|
A|---3--3--4--4--5---4---5---4---6---7---|
E|-------------------2---3---2---4---5---|
                  PM.....................|
Fill 1(Gtr. 2)
      *1            5    4   5    4   slack (wah off)
e|----------------------------------------|
B|----------------------------------------|
G|----------------------------------------|
D|----------------------------------------|
A|----------------------------------------|
E|---\\0---//-------\\---//--\\---//--\\--|
*-depress bar before striking note

Really weird fill      *
e|------------------------------------------------------|
B|------------------------------------------------------|
G|----------------------4p2p0h4p2p0h4p2p0h4p2p0h4p2p0---|
D|---5--5--6--6--7--------------------------------------|
A|---3--3--4--4--5p0------------------------------------|
E|------------------------------------------------------|
                  PM....................................|
*-While playing notes indicated, rest R.H. on bridge as if
palm-muting and move up and down causing random harmonics
to sound. (Written notes do not sound.)

Outro
                   *1         slack
e|----------------------------------|
B|----------------------------------|
G|------------------\\0//--\\--//---|
D|---5--5--6--6--7------------------|
A|---3--3--4--4--5------------------|
E|---------------------------0------|
*-depress bar before striking note

e|----------------------------------|
B|----------------------------------|
G|----------------------------------|
D|--5--5--6--6--7------------------|
A|---3--3--4--4--5------------------|
E|-----------------2--3--2--3--2---|
                  PM................|

e|----------------------------------|
B|----------------------------------|
G|----------------------------------|
D|---5--5--6--6--7-----------------|
A|---3--3--4--4--5--4--5--4--6--7---|
E|------------------2--3--2--4--5--|
                  PM................|

e|-------------------|
B|-------------------|
G|-------------------|
D|---5--5--6--6--7---|
A|---3--3--4--4--5---|
Comments