Primus - To Defy The Laws Of Tradition Chords & Tabs

 

To Defy The Laws Of Tradition Chords & Tabs

Primus Chords & Tabs

Version: 1 Type: Bass Tab 0 ratings
1 star 2 stars 3 stars 4 stars 5 stars
comments

To Defy The Laws Of Tradition Bass Tab

   
Primus
Album Frizzle Fry
To Defy the laws of tradition
Tabbed by brian @ lovesong@mediaone.net
 
 
 
This is the almost 100% correct tab. Watch it on the Videoplasty video and you'll see :)
 
Intro*
G|---9---9---9---9---9---9---9---|---9---9---9---9---9---9---9-------|
D|-----------------6---6---7---6-|-----------------6---6---7---6h7p6-|
A|-7---7---7---7-----------------|-7---7---7---7---------------------|
E|-------------------------------|-----0-----------------------------|
 
G|---9---9---9---9---9---9---9---|---9---9---9---9---9---9---9---9---9---9---9---9-|
D|-----------------6---6---7---6-|-5---5---5---5---5-------------------------------|
A|-7---7---7---7-----------------|---------------------5---5---6---7---7---7---7---|
E|-----0-------------------------|-------------------------------------------------|
 
G|---9---9---9---9---9---9---9-------|---9---9---9---9---9---9---9-------|
D|-----------------6---6---7---6h7p6-|-----------------6---6---7---6h7p6-|
A|-7---7---7---7---------------------|-7---7---7---7---------------------|
E|-----------------------------------|-----0-----------------------------|
 
G|---9---9---9---9---9---9---9-------|---9---9---9---9---9---9---9---9---9---9---9---9-|
D|-----------------6---6---7---6h7p6-|-5---5---5---5---5-------------------------------|
A|-7---7---7---7---------------------|---------------------5---5---6---7---7---7---7---|
E|-----0-----------------------------|-------------------------------------------------|
 
G|---9---9---9---9---9---9---9---|---9---9---9---9---9---9---9---|
D|-----------------8---8---8---8-|-----------------8---8---8---8-|
A|-7---7---7---7-----------------|-7---7---7---7-----------------|
E|-------------------------------|-----0-------------------------|
 
G|---9---9---9---9---9---9---9---|---9---9---9---9---9---9---9---|-6-7-8-|
D|-----------------8---8---8---8-|-----------------8---8---8---8-|-6-7-8-|
A|-7---7---7---7-----------------|-7---7---7---7-----------------|-4-5-6-|
E|-----0-------------------------|-----0-------------------------|-------|
 
MAIN RIFF
 
G----------------------------66------------------------6xx76--
D----------------------------66------------------------6xx76--
A----------------4h---------------------------------4---------
E--xx-4h6--4h6------6---4h6---------xx--4h6---4h6-------------
 
Once you get the messed up rythem down you will have a blast.
The trick to this song is to listen a lot before you play. Slap the E and A strings and D & G you have to stroke down with your middle finger. The first X's are down and 2nd are up.
 
For the slower part tap high on the D string and play this with your left hand
 

A|---h5--h7----------------------------|
E|-----------h7----h6---h5-------------|
 

Ending is
 
G|-6-7-8-|
D|-6-7-8-|
A|-4-5-6-|
E|-------|


[ Tab from: http://www.guitartabs.cc/tabs/p/primus/to_defy_the_laws_of_tradition_btab.html ]
Comments