Primus - The Pressman Chords & Tabs

 

The Pressman Chords & Tabs

Primus Chords & Tabs

Version: 2 Type: Bass Tab 0 ratings
1 star 2 stars 3 stars 4 stars 5 stars
comments

The Pressman Bass Tab

From: Primus8@aol.com
Music by Primus, Words by Les Claypool
[ Tab from: http://www.guitartabs.cc/tabs/p/primus/the_pressman_btab_ver_2.html ]
__________________________________________________
--------------------------------------------------
"The Pressman" from "Pork Soda"
__________________________________________________
--------------------------------------------------
Tabbed by Christopher Preston
	I don't know what Les played this on, but I think it's his 4-string
fretted. The first note (10/\) is played like that through the whole song.
It's about a 1/4 (or 1/2 live) vibrato.
		 19 times                              7 times
|--------------------|-5/11----||-----------------5/11-----|
|*------------------*|------9--||*---------------------9--*|
|*-10/\----10-11-10-*|---------||*-10---10-11-10----------*|
|--------------------|---------||--------------------------|
				 
				 15 times
|--------------|---------||----------------||-5/11----||
|--------------|-| 1/2 |-||*--------------*||------9--||
|-10--10-11-10-|---------||*-10--10-11-10-*||---------||
|--------------|---------||----------------||---------||
  
		     7 times                     31 times
|---------------|-5/11-----|--------------|----------------|
|*--------------|------9--*|--------------|*--------------*|
|*-10--10-11-10-|---------*|-10--10-11-10-|*-10--10-11-10-*|
|---------------|----------|--------------|----------------|
			     
			       7 times                     29 times
|-5/11----||----------------5/11----||---------||----------------|
|------9--||*--------------------9-*||-| 1/2 |-||*--------------*|
|---------||*-10--10-11-10---------*||---------||*-10--10-11-10-*|
|---------||------------------------||---------||----------------|

			  7 times
|-5/11----|----------------5/11----|--------------||
|------9--|*--------------------9-*|--------------||
|---------|*-10--10-11-10---------*|-10--10-11-10-||
|---------|------------------------|--------------||


Comments